Oops, an error
Loading. Please wait.

Alejándome Cada Vez tab

38 views 1 this week
no commentswrite comment
1 2 3 4 5
3 more votes to show rating
add to favorites
×
Save as Personal and add changes to this tab that will be seen only by you. Learn more ›
×
You can save this tab as Personal to edit and correct it or add notes. All changes will be seen only by you. Learn more »
launch autoscroll
font size
0
reset
how to read this tab
guitar tuner
edit
Autoscroll
slow
fast
+/-
esc
set tempo
stop
Intro
-------------------------------------
-1---1---0/1-3-1---------3---0----
-0-0---0----------0----0----0------
----------------------0-------------- Tres veces
-3-----------------------------------
-------------------3-----------------

D/F#  Am7/E  G/B  Am7  G  G4  G


G                          C     G  (G4)
Pálida es la nube que habita mi ser
G                        C     G  (G4)
silencio exacto quiere presentar
C              G (G4)
la muerte del día
C               G (G4)
y hojas que se van
Am7  D     G  (G4)
A      lejando,
Am7  D     G  (G4)
A       lejándose.

Intro

Con preguntas sordas que me hieren mal
tengo que escaparme para otro lugar
pero estoy enfermo, sucio de mentir
sin respuestas y sin responder.

Intro

F    Am7/E   D   C   B      A       G B  C  B    G

-1----0-------------------------------------------------------
-1----1-----------1------------------------------------3------
-2-2--0-0-------0-0----0-----0--0----------------0------------
-3----2-----0---------------------0--------------0------------
------------------3----2-----0--------2/3--2------------------
-----------------------------------3------------3-------------

F           C           G (G4)
Qué se han hecho de las almas
F      C                 G (G4)
borrachas de alguna cruz
F       C               G
hoy reflejos ya no viven
Am7  D   G (G4)
ni      su luz
Am7  D   G (G4)
ni      su luz


En general, cuando toca el G, no toca la prima,
lo toca con el D de la segunda.
Espero que se entienda bien; para mi quedó buena.
Pastoral es Gardel, cada día suena mejor ¡!

            
            
Suggest correction
Creating personal tab
Creating personal tab
You can edit any tab online and save it as your Personal.

You can edit, replace or remove any tab part or add personal notes – all changes will be seen only by you.

Personal tabs can be accessed anytime from any device, even offline.
Learn more »
Give kudos to tab author, rate the tab!
1 2 3 4 5
comments
print report bad tab
guest
Wanna post a correction for this tab? Suggest correction