Oops, an error
Loading. Please wait.

Así Tenía Que Ser tab

11 views 1 this week
no commentswrite comment
1 2 3 4 5
3 more votes to show rating
add to favorites
×
Save as Personal and add changes to this tab that will be seen only by you. Learn more ›
×
You can save this tab as Personal to edit and correct it or add notes. All changes will be seen only by you. Learn more »
launch autoscroll
font size
0
reset
how to read this tab
guitar tuner
edit
Autoscroll
slow
fast
+/-
esc
set tempo
stop
Tntro x 2: Em B - C#m - A - B

e|-----5-4------------------------------------------|
B|--------5-5----54-54----------------------------|
G|-----------------------4--------------------------|
D|----------------------------4/6-6-7-7/6--6-7-7/6--|
A|--------------------------------------------------|
E|--------------------------------------------------|

e|---------------------------|
B|-----------5-4-------------|
G|--------4------4-----------|
D|---4/6---------------------|
A|---------------------------|
E|---------------------------|


E      B             C#m
Hoy de nuevo me acordé
A
no parece fue tanto
E     B          C#m
sigo viendote llegar
A
aguantandome el llanto

E      B           C#m
Sé muy bien tu suerte
A
nos tocó perderte
E        B               A
y aunque no entienda por que
               E
asi tenía que ser

Intro x2
E        B        C#m
Lágrimas son las que
A
en recuerdos te guardan
E      B            C#m
Sin razones sin porqués
A
a nuestros días te llaman

E       B       C#m
Donde estés espero
A
encontrés tu cielo
E       B       A
pido yo que sea así...

E           B           C#m
Desde este lado y como puedo
A
te saludo hasta luego
E       B            C#m
mi canción quiere por ti
A
acompañar tu vuelo

E      B           C#m
Sé muy bien tu suerte
A
nos tocó perderte
E        B               A
y aunque no entienda por que
               E
asi tenía que ser

Solo

e|-----------------------------------------|
B|-----------------------------------------|
G|--9-9-8*---------------------------------|
D|---------9-6-9/11-6^^-6------------------|
A|-----------------------------------------|
E|-----------------------------------------|


e|----------------------------|
B|----------------------------|
G|-9-9-8*---------------------|
D|---------9-6-9/11----8^-6---|
A|----------------------------|
E|----------------------------|

E       B       C#m
Donde estés espero
A
encontrés tu cielo
E       B       A
pido yo que sea así...

E      B           C#m
Sé muy bien tu suerte
A
nos tocó perderte
E        B               A
y aunque no entienda por que
               E
asi tenía que ser

Intro x 2


Bueno el solo muy pronto :) cualquier cosa diganme , saludos

            
            
Suggest correction
Creating personal tab
Creating personal tab
You can edit any tab online and save it as your Personal.

You can edit, replace or remove any tab part or add personal notes – all changes will be seen only by you.

Personal tabs can be accessed anytime from any device, even offline.
Learn more »
Give kudos to tab author, rate the tab!
1 2 3 4 5
comments
print report bad tab
guest
Wanna post a correction for this tab? Suggest correction