Oops, an error
Loading. Please wait.

El Fantasma Enamorado tab

504 views 1 this week
no commentswrite comment
1 2 3 4 5
2 more votes to show rating
add to favorites
×
Save as Personal and add changes to this tab that will be seen only by you. Learn more ›
×
You can save this tab as Personal to edit and correct it or add notes. All changes will be seen only by you. Learn more »
launch autoscroll
font size
0
reset
how to read this tab
guitar tuner
edit
Autoscroll
slow
fast
+/-
esc
set tempo
stop
Hola, saludos... He estado buscando acordes y tablaturas de Paté de Fuá
pero no las he encontrado por ningún lado, así que he tratado de sacar
algunas de sus canciones con mi Guitarra y aquí esta la primera.

Se me hace un poco difícil reconocer los acordes y notas de sus canciones
y melodías así que pueden tener errores o faltarles algún requinto, arreglo
o acompañamiento pero espero que más gente se una a compartir, completar o
corregir los acordes y tablaturas de estas canciones de Paté de Fuá que
están bien chidas, Gracias?

Dedicada para todo México, en especial para El Quemado Atoyac de Álvarez
Guerrero

Saludos!!!


Intro:
   Cm
D|---| |-----------|
A|-3-| |-0-2-3(Cm)-|Bajeo que cae en Cm
E|---| |-----------|x4


  Cm        Fm      Cm          G      G7
e|------3--3------------------------------|
B|-4--4---4-6-------------4---4-4-2-0-1---|
G|-------------5-1---1--1----5------------|
D|----------------------------------------|
A|----------------------------------------|
E|----------------------------------------|x4


   Cm    Fm    Cm   Fm    Cm       G    Cm
e|------------------------------------------|
B|-7--8--6---8-7-8--6---8-7/8--4-3-4-4--1---|
G|------------------------------------------|
D|------------------------------------------|
A|------------------------------------------|
E|------------------------------------------|x2

  Cm
e|-3---------|(De esto no estoy muy seguro pero creo que así va)
B|---4-3-4---|<Esto se hace rapido>
G|---------5-|
D|-----------|x4
  Cm
D|-----------|
A|-0-2-3(Cm)-|Al mismo tiempo que lo de arriba
E|-----------|x4


Cm                Fm
Cuando vuelan murciélagos
Cm                G         G7
Por los cielos en la oscuridad
Cm           Fm
Y la Luna sobre el panteón
Cm                  G          G7
Cubre a los que descansan en paz

Cm                Fm
De una tumba suele asomar
Cm                G         G7
Un fantasma que busca el amor
Cm                Fm
De la hermosa y angelical
Cm                G      G7
Joven hija del enterrador

G#          G   Cm       Fm
Cuentan que el sale a vagar
                                 Cm <-- El mismo de abajo
                      A|-------5-3-|
A#       G#       G   E|-3-1-0-----|
El cementerio y a anochecer
Cm <--         Fm
Entre tumbas y bóvedas
Cm                   G
Marcha en busca de aquella mujer

   Cm     Fm     Cm    Fm     Cm        G     Cm
e|----------------------------------------------------|
B|----------------------------------------------------|
G|----------------------------------------------------|
D|----------------------------------------------------|
A|-9--10--8---10-9-10--8---10-9/10--6-5-6-6-----------|
E|-------------------------------------------8-6-4-3--|x2
                                          -->********
                                         Aqui pueden tocar:

                                           A|-3-1-----|
                                           E|-----4-3-|
                                           -->********

                                            en lugar de:

                                           A|---------|
                                           E|-8-6-4-3-|
                                           -->********

Cm (Cm Fm Cm-G-Cm-G)x2 <-- Aquí va un arpegio pero todavía no se como es
                   Lo que es una lastima por que me gusta mucho como suena
                    si alguien lo saca háganoslo saber por favor o súbanlo

   Cm     Fm     Cm    Fm     Cm        G     Cm
e|----------------------------------------------------|
B|----------------------------------------------------|
G|----------------------------------------------------|
D|----------------------------------------------------|
A|-9--10--8---10-9-10--8---10-9/10--6-5-6-6-----------|
E|-------------------------------------------8-6-4-3--|


   Cm     Fm     Cm    Fm     Cm        G     Cm
e|----------------------------------------------||-----------|
B|----------------------------------------------||-----------|
G|----------------------------------------------||-----------|
D|----------------------------------------------||-----------|
A|-9--10--8---10-9-10--8---10-9/10--6-5-6-6---3-||-0-2-3(Cm)-|
E|----------------------------------------------||-----------|x4


Cm             Fm
Añorando aquel corazón
Cm               G           G7
Que tenía cuando era un mortal
Cm                Fm
El fantasma en su decepción
Cm                G        G7
Roba flores de algún funeral

Cm               Fm
Antes de que se asome el sol
Cm            G           G7
A la fosa tendrá que volver
Cm               Fm
Y enterrarse con la ilusión
Cm                     G       G7
De encontrar a esa hermosa mujer

G#      G  Cm         Fm
Sueña así desde el cajón
                                    Cm
                         A|-------5-3-|
A#            G#     G   E|-3-1-0-----|
Que va a una nueva familia forjar
Cm               Fm
Y en alguna otra dimensión
Cm             G
Un pequeño fantasma criar.

   Cm     Fm     Cm    Fm     Cm        G     Cm
e|----------------------------------------------------|
B|----------------------------------------------------|
G|----------------------------------------------------|
D|----------------------------------------------------|
A|-9--10--8---10-9-10--8---10-9/10--6-5-6-6-----------|
E|-------------------------------------------8-6-4-3--|


   Cm     Fm     Cm    Fm     Cm        G     Cm
e|----------------------------------------------||-----------|
B|----------------------------------------------||-----------|
G|----------------------------------------------||-----------|
D|----------------------------------------------||-----------|
A|-9--10--8---10-9-10--8---10-9/10--6-5-6-6---3-||-0-2-3(Cm)-|
E|----------------------------------------------||-----------|x3

       Cm                        Cm
e|-----3-----||-3-------------||-3-|
B|-----4-----||---4-3-4-------||-4-|
G|-----5-----||---------5-4-5-||-5-|
D|-----5-----||---------------||-5-|
A|-0-2-3-----||---------------||-3-|
E|-----------||---------------||---|

            
            
Suggest correction
Creating personal tab
Creating personal tab
You can edit any tab online and save it as your Personal.

You can edit, replace or remove any tab part or add personal notes – all changes will be seen only by you.

Personal tabs can be accessed anytime from any device, even offline.
Learn more »
Give kudos to tab author, rate the tab!
1 2 3 4 5
comments
print report bad tab
guest
Wanna post a correction for this tab? Suggest correction