Oops, an error
Loading. Please wait.

Paloma Cruel tab

130 views 1 this week
no commentswrite comment
1 2 3 4 5
1 last vote to show rating
add to favorites
×
Save as Personal and add changes to this tab that will be seen only by you. Learn more ›
×
You can save this tab as Personal to edit and correct it or add notes. All changes will be seen only by you. Learn more »
launch autoscroll
font size
0
reset
how to read this tab
guitar tuner
edit
Autoscroll
slow
fast
+/-
esc
set tempo
stop
Hola, esta canción se la dedico a mi amada...
viva México!!!
y saludos a Paté de Fuá

Acordes:
           Cuerdas:
          6 5 4 3 2 1

      Bm:(2)2 4 4 3 2 SI menor
      F#: 2 4 4 3 2 2 Fa Sostenido
       G: 3 5 5 4 3 3 Sol
       D: x(0)0 2 3 2 Re
      Em:(0)2 2 0 0 0 MI menor
     C#7:(4)4 6 4 6 4 Do Sostenido 7

nota:los números en parentesis los puedes
     tocar para el bajeo (empezando con
     el bajo que no esta entre parentesis)

Intro:

Riff 1:

   Bm            F#            Bm            F#            Bm
e|------2-------------2-------------2-------------2----------|
B|-0--3----3-2-0----2----3-2------3----3-2-0----2----3-2-----|
G|---------------3-----------3-4-------------3-----------3-4-|


Luego:

   Bm               F#       G                 D
e|-10--7----10-9----9--6---|-10--7----10-9-----10-5---|
B|-------7-------12------7-|-------8-------12-------7-|
G|-------------------------|--------------------------|

  Em            Bm
|-7-------7-----7------|
|----8-5----8-5----7---|
|--------------------7-|


         F#             Bm <-- Aqui mismo
e|-------------------------|   empieza el
B|-0-2-4-7--2-3-5-5-3-2-0--|   riff 1
G|-------------------------|   otra vez


 Este Bm es el mismo con el que termina el riff 1
   |
   v
   Bm               F#       G                 D
e|-10--7----10-9----9--6---|-10--7----10-9-----10-5---|
B|-------7-------12------7-|-------8-------12-------7-|
G|-------------------------|--------------------------|


  Em            Bm
|-7-------7-----7------|
|----8-5----8-5----7---|
|--------------------7-|


         F#             Bm
e|-------------------------|
B|-0-2-4-7--2-3-5-5-3-2-0--|
G|-------------------------|

   F#        Bm      C#7    F#
e|--------------------------7--5-3----|
B|-0--2-4-5--4-2-0---2--4-6--------7--|
G|------------------------------------|

   Em            Bm             F#             Bm <-- Aqui
e|-7-------7-----7------|-------------------------|   empieza
B|----8-5----8-5----7---|-0-2-4-7--2-3-5-5-3-2-0--|   el
G|--------------------7-|-------------------------|   riff 2


Riff 2:

    Bm          F#        Bm          F#        Bm
e:|-10-9-7-10---9-7-6-9---10-9-7-10---9-7-6-9---7-5-3-7---|
B:|-------------------------------------------------------|
G:|-------------------------------------------------------|


Bm                        F#
Como un barco hundiéndose en el mar
G                        D
Vengo a ahogar mis penas en alcohol
Em                Bm
Cada noche voy de bar en bar
           F#                  Bm  F#  Bm  F#
Y vuelvo a casa cuando sale el sol

Bm                    F#
Tomo un trago junto a mi dolor
G                     D
Y la ausencia de aquella mujer
Em                      Bm
La que me enseño que en el amor
            F#              Bm
Soy al que siempre le toca perder

F#                 Bm
Paloma cruel el querer
C#7               F#
Su amor fue pura traición
Em                 Bm
Hizo un nido de mi corazón
             F#               Bm
Y hecho a volar para nunca volver


Aqui entra con el Riff 2
y la parte del solo se los debo
luego me pongo a escuchar las notas


Bm                    F#
Como un alma en pena vuelvo a andar
G                    D
Los caminos de la incomprensión
Em                 Bm
Y en la copa trato de olvidar
           F#                   Bm
La herida que me causo una traición

Bm               F#
Cantinero sirva por favor
G                  D
Otra copa y no pregunte más
Em                   Bm
Hoy mi amigo fiel es el dolor
           F#                 Bm
Hoy la tristeza no me deja en paz

F#              Bm
Aquella paloma cruel
C#7                F#
Se pozo en mi corazón
Em                    Bm
Hizo un nido y luego sin razón
           F#                Bm <-- Aqui empieza
Hecho a volar para nunca volver     el riff 3


Riff 3:

    Bm          F#        Bm          F#
e:|-10-9-7-10---9-7-6-9---10-9-7-10---9-7-6-9-| x3

    Bm         Bm
e:|-10-9-7-10--10-|
Suggest correction
Creating personal tab
Creating personal tab
You can edit any tab online and save it as your Personal.

You can edit, replace or remove any tab part or add personal notes – all changes will be seen only by you.

Personal tabs can be accessed anytime from any device, even offline.
Learn more »
Give kudos to tab author, rate the tab!
1 2 3 4 5
comments
print report bad tab
guest
Wanna post a correction for this tab? Suggest correction