Oops, an error
Loading. Please wait.

Blues De La Artillería tab

version 1
version 1

Whole song

147 views 1 this week
no commentswrite comment
1 2 3 4 5
3 more votes to show rating
add to favorites
×
Save as Personal and add changes to this tab that will be seen only by you. Learn more ›
×
You can save this tab as Personal to edit and correct it or add notes. All changes will be seen only by you. Learn more »
launch autoscroll
font size
0
reset
how to read this tab
guitar tuner
edit
Autoscroll
slow
fast
+/-
esc
set tempo
stop
Acá les dejo uno de los mejores temas de los redondos
Creo q así esta bien sacado no como en las otras verciones
aunque me ayudaron un poquito en algunas partes...
saludos ricoteros!!!!

Esto de puede tocar haciendo (PM) para darle un sonid
o más parecido a como hace Skay

            SI5                          SOL 5
Intro: D-----4-4-3-4-----4-3-4-5-6-4-3-0-------------------------
       A---2------------2-----------------5-5-3-5-----5-3-5-6-5--
       E---------------2-----------------3--------0-3------------

              SI5                          SOL 5
       D-----4-4-3-4-----4-3-4-5-6-4-3-0-------------------------
       A---2------------2-----------------5-5-3-5-----5-3-5------
       E---------------2-----------------3--------0-3-------3-2--
             MI5
       D----2~------------------
       A----2~------------------
       E----0~-------0-2-3-2-0--

              SI5                          FA#5
       D-----4-4-3-4-----4-3-4-5-6-4----------4-------------------
       A---2------------2---------------------4--x9---------------
       E---------------2--------------------2----(mas o menos)
                                             vuelve al principio


        SINO PODODES VOLVER HACIENDO ASí:

         FA#5   MI5  RE5  DO#5
       D-11-11--9-9--7-7--6-6-------
       A-9--9---7-7--5-5--4-4-------Y vuelve al principio
       E----------------------------


¡¡¡El tema va sobre el riff!!!


1er VERSO:   (Igual que la intro)


SIm                   SOL 5
  Sos el as del Club París
SIm                  SOL 5
  as, lo tuyo no es el Rock
MIm                      SIm
  cierran los bares por donde vas,
FA#5
  tu breto y tus ojos grises.


VERSO 2: (Igual que la intro)

SIm                   SOL 5
yo no soy de aconsejar
SIm                   SOL 5
pero estás jodiendo al personal
MIm                      SIm
debiste poner en Rio ese restorán
FA#5
que te quitó el sueño, el sueño.

ESTRIBILLO:
                               FA      SOL#    SI      RE
  Guitarra :   RIFF
E|-------------------------|--------|--(4b)-|---(7b)-|---(10b)|
B|-------------------------|--------|-4-----|-7------|10------|
G|-------------------------|--------|-------|--------|--------|X2
D|--9--7-7-----------------|--------|-------|--------|--------|
A|--9--5-5----------5------|-3-3--3-|-------|--------|--------|
E|--7-------7---5-7---(7)~-|-1-1--1-|-------|--------|--------|


RIFF    FA  SOL#            SI           RE        FA    SOL#    SI    RE
               Pero cabe todo lo tuyo en una maldita valija
RIFF    FA  SOL#        SI           RE       FA    SOL#    SI    RE
               de líder dealer sin freno.

SIm                   SOL
Sos el as del Club París
SIm                   SOL
sos la joya del lugar
MIm                      SIm
el acento del barrio te sale mal,
FA#5
y te quita el sueño, el sueño.

SOL RE                                         SOL       RE
        Vas como un ciego en la bodega, tock tock tock
         SOL            RE                     SOL
        Cual es tu charter cual es,he!
        FA#
        Sos un aristócrata de cotillon

ESTRIBILLO


RIFF    FA  SOL#            SI           RE       FA    SOL#    SI    RE
               Pero cabe todo lo tuyo en una maldita valija
RIFF    FA  SOL#        SI           RE       FA    SOL#    SI    RE
               de líder dealer sin freno.


SOL 5 FA#5
      si tu moneda hablara,
SOL 5 FA#5
      si esa moneda hablara,
SOL 5 FA#             SOL
      más de la cuenta.
-------------------------------------------------------------------------
Emiliano
Mail:Elrengo_che@

            
            
Suggest correction
Creating personal tab
Creating personal tab
You can edit any tab online and save it as your Personal.

You can edit, replace or remove any tab part or add personal notes – all changes will be seen only by you.

Personal tabs can be accessed anytime from any device, even offline.
Learn more »
Give kudos to tab author, rate the tab!
1 2 3 4 5
comments
print report bad tab
guest
Wanna post a correction for this tab? Suggest correction