Oops, an error
Loading. Please wait.

El Árbol Del Gran Bonete tab

version 2
version 2

Whole song

29 views 1 this week
no commentswrite comment
1 2 3 4 5
3 more votes to show rating
add to favorites
×
Save as Personal and add changes to this tab that will be seen only by you. Learn more ›
×
You can save this tab as Personal to edit and correct it or add notes. All changes will be seen only by you. Learn more »
launch autoscroll
font size
0
reset
how to read this tab
guitar tuner
edit
Autoscroll
slow
fast
+/-
esc
set tempo
stop
INTRO:
GUITARRA 1:
e|-------------|-----------|----------------|-------------|
B|--------3----|------3----|-5~-3~----------|-------3-----|
G|-----5~------|----5------|-------5--4--2--|----5~-------|
D|--3~-------3~|-3~------3-|----------------|-3~-------3~-|
A|-------------|-----------|----------------|-------------|
E|-------------|-----------|----------------|-------------|

GUITARRA 2: [FA- MIm FA]

BAJO:
G|-------------|---|-------------|-----------|
D|--3------3---|-X2|--2-0--------|--3-------3|
A|----3-5------|---|------3-2-0--|-----3--5--|
E|-------------|---|-------------|-----------|


VERSO 1:
GUITARRA 1:  FA
e|-------------------------|
B|-------------------------|
G|---------4---------(5~)--|X4
D|--3-3-3-----3-3-3--------|
A|-------------------------|
E|-------------------------|
Pm  .....         .....
BAJO:
G|-------------------------|
D|-------------------------|X4
A|---------2---------(3)---|
E|--1-1-1------1-1-1-------|


   Su cuchillo de herrero afiló
   el señor en los cielos.
   Miren lo que este bicho logró
   al confiar en sus sueños.


ESTRIBILLO 1:

GUITARRA 1:
e|-------------|-----------|----------------|-------------|
B|--------3----|------3----|-5~-3~----------|-------3-----|
G|-----5~------|----5------|-------5--4--2--|----5~-------|
D|--3~-------3~|-3~------3-|----------------|-3~-------3~-|
A|-------------|-----------|----------------|-------------|
E|-------------|-----------|----------------|-------------|


GUITARRA 2: [FA- MIm FA]

BAJO:
G|-------------|---|-------------|-----------|
D|--3------3---|-X2|--2-0--------|--3-------3|
A|----3-5------|---|------3-2-0--|-----3--5--|
E|-------------|---|-------------|-----------|


Soy jocker comodín,
en la "Estrella del Sur".


VERSO 2:(igual)

   Sacudido del árbol cayó
un fruto dulce muy raro,
tropecé con mis ganglios y vi,
que morderlo era caro.


ESTRIBILLO 2: (igual)

   Soy un jocker burlón
   de la "Estrella del Sur".


SOLO DE SAXO:

BAJO: LAm
G|--------------------|--|----------------|
D|--------------------|X3|----------------|
A|--------------------|--|----------------|
E|--(5)--0-3-(5)-(6)--|--|--(5)--0-3-(5)--|

GUITARRA;
                LAm
e|-----(5)-|------------(5)-|------------(5)--|-------------(5)-|
B|-----(5)-|------6-----(5)-|--6---------(5)--|------6------(5)-|
G|---------|----7-----------|----7------------|----7------------|
D|---------|--7-------------|------7----------|--7--------------|
A|---------|----------------|-----------------|-----------------|
E|-(5)-----|--------(5)-----|--------(5)------|--------(5)------|


SOLO DE GUITARRA.

BAJO: SOL FA
G|-----------|--||
D|-----------|X3||
A|-----------|--||
E|-(3)--(1)--|--||

GUITARRA 2:
  SOl   FA
e|-----------|--||
B|-----------|--||
G|-----------|--||
D|-(5)--(3)--|X3|| dejar sonar el ultimo FA
A|-(5)--(3)--|--||
E|-(3)--(1)--|--||

Guitarra (Solo)

e|------------------------|---------------------------|
B|-12b-12--10--12---------|-13b--13-12-13---12h13p(12)|
G|----------------(10)~-/-|---------------------------|
D|------------------------|---------------------------|
A|------------------------|---------------------------|
E|------------------------|---------------------------|

e|----(12b)-10-8--7h8p7-|------------------|
B|-/x-------------------|------------------|
G|----------------------|-9--5-7p5---5-----|
D|----------------------|----------7---(7)-|
A|----------------------|------------------|
E|----------------------|------------------|

SOLO DE TROMPETA 2:
BAJO: LAm
G|--------------------|----------------|
D|--------------------|----------------|
A|--------------------|----------------|
E|--(5)--0-3-(5)-(6)--|--(5)--0-3-(5)--|

GUITARRA;
                LAm
e|-----(5)-|------------(5)-|
B|-----(5)-|------6-----(5)-|
G|---------|----7-----------|
D|---------|--7-------------|
A|---------|----------------|
E|-(5)-----|--------(5)-----|


VERSO 3:
GUITARRA 1:
   FA7+/#11
e|---0-----|
B|---0-----|
G|---2-----| RASGUEOS con este acorde
D|---3-----|
A|---3-----|
E|---1-----|

BAJO:
G|----------------------------|
D|----------------------------|X4
A|---------2-3-2--------(3)---|
E|--1-1-1---------1-1-1-------|

FA7+/#11
       Pida lo que usted quiera, Señor
       el limite es el cielo, Señor...
       de un dios nuevo, mejor hecho
       y bajo nuestro pulgar.


PUENTE;
GUITARRA:

e|-------------|-----------|----------------|-------------|
B|--------3----|------3----|-5~-3~----------|-------3-----|
G|-----5~------|----5------|-------5--4--2--|----5~-------|
D|--3~-------3~|-3~------3-|----------------|-3~-------3~-|
A|-------------|-----------|----------------|-------------|
E|-------------|-----------|----------------|-------------|


GUITARRA 2:  [DO - MI -FA]

BAJO:   DO             MI             FA
G|-------------|---|---------------|-------------------|
D|-------------|X2-|---------------|-------------------|
A|-33333333333-|---|-7-7-7-7-7-7-7-|-------------------|
E|-------------|---|---------------|-1-1-1-1-1-1-1-1-1-|


VERSO 4 (igual al 1)

   Volveré a sumergirme, Señor
   en este rio loco?
   Tiene usted para mi alguna luz
   en esta noche eterna?


ESTRIBILLO 2 (igual)

   Ya me hartó la función
   en la "Estrella del Sur".


FINAL..

con base de VERSO X20   fade out

Corregí la canción porque me parecía que no sonaba bien,
Lo que falta es el solo del final que no lo saque, y el
otro solo no lo corregí.
Cualquier duda: fede_09_@
Federico Zabala

            
            
Suggest correction
Creating personal tab
Creating personal tab
You can edit any tab online and save it as your Personal.

You can edit, replace or remove any tab part or add personal notes – all changes will be seen only by you.

Personal tabs can be accessed anytime from any device, even offline.
Learn more »
Give kudos to tab author, rate the tab!
1 2 3 4 5
comments
print report bad tab
guest
Wanna post a correction for this tab? Suggest correction