Oops, an error
Loading. Please wait.

La Pequeña Novia Del Carioca tab

version 2
version 2

Whole song

55 views 1 this week
no commentswrite comment
1 2 3 4 5
3 more votes to show rating
add to favorites
×
Save as Personal and add changes to this tab that will be seen only by you. Learn more ›
×
You can save this tab as Personal to edit and correct it or add notes. All changes will be seen only by you. Learn more »
launch autoscroll
font size
0
reset
how to read this tab
guitar tuner
edit
Autoscroll
slow
fast
+/-
esc
set tempo
stop
ESTROFA:

Riff 1°
e|-----------------------------|
B|-----------------------------|
G|-----------------------------|
D|--8--6-----8--6--------------|
A|--6--4--4--6--4--------------|
E|--------2--------------------|

Un día después,
(después de vos...)
cruce los dedos.
LA barca pasó
y el río quedó,
al fin, quieto

F# - C# x2

Riff 2°
e|-------------|------------9--|
B|--11-10------|-11----12-11-9-|
G|--------11---|----11---------|
D|----------11-|---------------|
A|-------------|---------------|
E|-------------|---------------|

e|---------------------------|
B|--10/11-10-----------------|
G|----------813-11----11/13--|
D|-----------------13--------|
A|---------------------------|
E|---------------------------|

Riff 1°

Solo un cuento fue,
que ayudó a pasar, un buen rato.
Un castillo de, naipes que cayó,
y palabras baratas.


ESTRIBILLO:

A#m
 En el aire entre los dos,
F#         A5
 brilló una copa rota.
A#m
 Mala suerte, mi palma dio,
F#         A5
 destino oscuro.
A#m
 Un dulce licor de romero,
F#         A5
 fue la mala idea loca.
A#m
 Te vas a enterar por esta canción,
F#         A5
 para "el carioca"!

Riff 1°
No sueño mas con vos,
ya cayó otra flor del cielo.
Te voy a robar, esta canción de amor,
y de consuelo.

A#m; F#; A5 x 4

Riff 1°
A LA suave luz,
de la luna vi, tu espalda.
hay un lugar allí, para mis huellas,
y un lunar nocturno.

F# - C# x2
Riff 2°


Riff 1°
Apostamos mal,
serás mas feliz, vagabundeando.
Muy poco amable fui,
nada nuevo vi, en tus ojos.

ESTRIBILLO:
En el aire entre los dos,
brilló una copa rota.
Mala suerte, mi palma dio, destino oscuro.
Un dulce licor de romero,
fue la mala idea loca.
Te vas a enterar por esta canción,
para "el carioca"!

Riff 1°
Un día después,
(después de vos...)
cruce los dedos.
LA barca pasó,
y el río quedó,
al fin, quieto.
Suggest correction
Creating personal tab
Creating personal tab
You can edit any tab online and save it as your Personal.

You can edit, replace or remove any tab part or add personal notes – all changes will be seen only by you.

Personal tabs can be accessed anytime from any device, even offline.
Learn more »
Give kudos to tab author, rate the tab!
1 2 3 4 5
comments
print report bad tab
guest
Wanna post a correction for this tab? Suggest correction