Oops, an error
Loading. Please wait.

Ladrón De Mi Cerebro tab

69 views 1 this week
no commentswrite comment
1 2 3 4 5
3 more votes to show rating
add to favorites
×
Save as Personal and add changes to this tab that will be seen only by you. Learn more ›
×
You can save this tab as Personal to edit and correct it or add notes. All changes will be seen only by you. Learn more »
launch autoscroll
font size
0
reset
how to read this tab
guitar tuner
edit
Autoscroll
slow
fast
+/-
esc
set tempo
stop
Intro
           A          C*              A

e|---------------------------------------------------|
B|----2-x-2-x-2-x-2---5~-----2-x-2-2-x-2-------------|
G|----2-x-2-x-2-x-2---5~-----2-x-2-2-x-2-------------|
D|----2-x-2-x-2-x-2----------2-x-2-2-x-2-------5-7---|
A|-0----------------------0----------------5-7-------|
E|---------------------------------------------------|

           A          C*              A

e|--------------------------------------------------|-------|
B|----2-x-2-x-2-x-2---5~-----2-x-2-2-x-2------------|-------|
G|----2-x-2-x-2-x-2---5~-----2-x-2-2-x-2------------|-------|
D|----2-x-2-x-2-x-2----------2-x-2-2-x-2-------5-7--|-------|
A|-0----------------------0----------------5-7------|----0--|
E|--------------------------------------------------|-3-----|
                                                      2da Viola
 0:27     D                     A

e|----2-x-2-x-(2)------2-x-2-x-(0)----|
B|----3-x-3-x-(3)------3-x-3-x-(2)----|
G|----2-x-2-x-(2)------2-x-2-x-(2)----| X2
D|----0-x-0-x-(0)------0-x-0-x-(2)----|
A|-----------------------------(0)----|
E|------------------------------------|


0:34

 C   D    A   C*        D        A      Riff 1
     Cacería     hecha con dos naipes...

Riff 1             C    D
e|-------------------------|
B|---------2-----5-x-5-/7--|
G|---------2-----5-x-5-/7--|
D|---------2---------------|
A|-0-3-0---0---------------|
E|-------3-----------------|
                             A    C*      D       A      Riff 2
                   ...Datos feos,    por eso brindamos

Riff 2
e|----------|
B|---------2|
G|---------2|
D|---------2|
A|-0-3-0---0|
E|-------3--|

              D              A        D            A
                El mejor testigo se puede contradecir

D              A
  Por eso brindamos...

    C        D     A   Riff 1
ladrón de mi cere-bro

(el resto sigue igual)
Trato hecho sobre un tapete
comodines y las jotas abren
Ella es bailarina de la caja musical
él es el peligro,
ladrón de mi cerebro...
ladrón de mi cerebro.

Riff 3

1:53

e|------------------|   ---------------------------------------|
B|------------------|   ---------------------------------------|
G|------------------|   ---------------------------------------|
D|--/9---9---9-8-7--|X4 ---7-5-7----7-5-7---------7------------|
A|--/7---7---7-6-5--|   ---5-3-5----5-3-5---7-7-7-5--7-7-7-7---|
E|-0---0---0--------|   -0--------0---------5-5-5----5-5-5-5---|

e|-------------------------------------|----------------------|
B|-------------------------------------|--9-9-9-9-7/-9-9-9-9--|
G|-------------------------------------|--9-9-9-9-7/-9-9-9-9--|
D|---7-5-7----7-5-7--------------------|--9-9-9-9-7/-9-9-9-9--|
A|---5-3-5----5-3-5---7-7-7-7--7-7-7-7-|--7-7-7-7-5/-7-7-7-7--|
E|-0--------0---------5-5-5-5--5-5-5-5-|----------------------|
                                                X2
A  (el resto sigue igual)
  No quiero que me digas nada
si es tan duro vivir como un duro
Si corres peligro con solo venir aquí
no me digas nada,
ladrón de mi cerebro...

Riff 2

  3:15
e|----------|
B|---------2|
G|---------2|
D|---------2|
A|-0-3-0---0|
E|-------3--|

Fin

e|---------------------------|
B|---------------------------|
G|---------------------------|
D|--/9----8-7---/9--7--5-----|
A|--/7----6-5---/7--5--3--7--|
E|-0----------0-----------5--|


Espero que les guste :)
Desde La Plata, "Miguel Sánchez y los desterrados..."
Esto está muy shangai!

            
            
Suggest correction
Creating personal tab
Creating personal tab
You can edit any tab online and save it as your Personal.

You can edit, replace or remove any tab part or add personal notes – all changes will be seen only by you.

Personal tabs can be accessed anytime from any device, even offline.
Learn more »
Give kudos to tab author, rate the tab!
1 2 3 4 5
comments
print report bad tab
guest
Wanna post a correction for this tab? Suggest correction