Oops, an error
Loading. Please wait.

Música Para Pastillas chords

version 2
version 2

Whole song

97 views 1 this week
no commentswrite comment
1 2 3 4 5
3 more votes to show rating
add to favorites
×
Save as Personal and add changes to this tab that will be seen only by you. Learn more ›
×
You can save this tab as Personal to edit and correct it or add notes. All changes will be seen only by you. Learn more »
launch autoscroll
font size
0
reset
transpose
0
reset
display chords
guitar tuner
edit
Autoscroll
slow
fast
+/-
esc
set tempo
stop
Strumming
There is no strumming pattern for this song yet. and get +5 IQ
Intro:

GUITARRA 1
                [PARTE A ]x4
E|--------||----------------------------------|---------0-%-----------||
B|--------||----------------------------------|---------0-%-----------||
G|--------||*----------------(5)-4-2----------|-5-5-4-5--------------*|| X4
D|----2-4-||*-5-4-2--(5)-4-2----------5-4-2-0-|-5-5-4-5--------5-4--*||
A|--2-----||----------------------------------|-3-3-2-3---------5-4---||
E|--------||----------------------------------|-----------------3-2---||

GUITARRA 2:                                     palm mute
E|--------||----------------------------------|--------------------------||
B|--------||----------------------------------|5-7-8--5-7-8--5-7-8-5-7-8-||
G|--------||*-(9)--9---------(5)--------------|-------------------------*|| X4
D|--------||*-(9)--9---------(5)--------------|-------------------------*||
A|--------||--(7)--7---------(3)--------------|--------------------------||
E|--------||--(0)-----------------------------|--------------------------||    
                                                PM.......................
BAJO:
G|--------||-----------|----------------------|--------------------------|| X4
D|--------||*----------|----------------------|-------------------------*||
A|--------||*-7--------|-(3)-5--(3)-----------|-3-3-2-3----------------*||
E|--------||-----7-(7)-|----------------------|-----------0-----3-0-2----||


INTRO de saxo (sobre esta PARTE A)  *arranca desde la 2da vuelta-

SAXO: [arreglo]                                 fin la                fin 2da
                   fill1                       1ra vez                vuela
E|--------------------------------------------|--------|------------|---------|
B|-16-13--------------------------------------|--------|---REPITE---|---------|
G|-------16-14--12---16--(12)--------11----12-|--------|----fill-1--|--(12)---|
D|----------------------------(12)-----/14----|-(12)---|------------|---------|
A|--------------------------------------------|--------|------------|---------|
E|--------------------------------------------|--------|------------|---------|

Sigue asi..

PARTE 2
                                           _______________________PARTE 3_______________________
GUITARRA 1:                               |                                                     |
E|-----------|------------------------|--|-----------------------------|---------0-%---------|--|
B|-----------|------------------------|--|-----------------------------|---------0-%---------|--|
G|--5-5-4-(5)|----queda sonando-------|--|--------------(5)-4-2--------|-5-5-4-5-------------|X2|
D|--5-5-4-(5)|------------------------|X3|5-4-2--(5)-4-2-------5-4-2-0-|-5-5-4-5--------5-4-|--|
A|--3-3-2-(3)|------------------------|--|-----------------------------|-3-3-2-3---------5-4-|--|
E|-----------|------------------------|--|-----------------------------|-----------------3-2-|--|
                                            _______________________PARTE 3_____________________
GUITARRA 2:   punteo                       |                           palm mute               |
E|-----------|(12b)-10-----------------|--|------------------------|--------------------------|--
B|-----------|---------11-10---10-(12)~|--|------------------------|-5-7-8--5-7-8--5-7-8-5-7-8|--
G|--5-5-4-(5)|--------------12---------|--|(9)--9-------(5)--------|--------------------------|--
D|--5-5-4-(5)|-------------------------|X3|(9)--9-------(5)--------|--------------------------|x2
A|--3-3-2-(3)|-------------------------|--|(7)--7-------(3)--------|--------------------------|--
E|-----------|-------------------------|--|-0----------------------|--------------------------|--
                                            _______________________PARTE 3____________
SAXO:       Fill 2                         |                                          |  
E|-----------|(12b)-10-----------------|--|--------------------------------------------|
B|-----------|---------11-10---10-(12)~|--|--------------------------------------------|
G|----------|--------------12---------|X3|------------REPITE TODO EL INTRO DE SAXO----|
D|-----------|-------------------------|--|-------------------(es IGUAL)---------------|
A|-----------|-------------------------|--|--------------------------------------------|
E|-----------|-------------------------|--|--------------------------------------------|
                                            ______________________PARTE 3_____________________
BAJO:                                      |                                                  |
G|-----------|-------------------------|--|----------|---------------|-----------------------|--| 
D|-----------|--queda sonando----------|x3|----------|---------------|-----------------------|--|
A|--3-3-2-(3)|-------------------------|--|-7--------|-(3)-5--(3)----|-3-3-2-3--------------|X2|
E|-----------|-------------------------|--|----7-(7)-|---------------|-----------0-----3-0-2-|--|


VERSO 1:

CON PARTE 1] X2

   Flacas gimnastas de América-a-as.
   Secas austeras Soviética-a-as.

ESTRIBILLO 1:

CON PARTE 2] X3   pero sin el saxo.....

   "Muchachitas fatales,
   en blancos soquetes chinos,
   son todas joyas, Patricias de amor."


PUENTE: (como LA PARTE 3)
******


VERSO 2:

CON PARTE 1] X2

 
   La más hermosa niña del mundo
   pude dar solo lo que tiene para dar.

 
ESTRIBILLO 2:

CON PARTE 2] X3   pero sin el saxo.....

   Música para pastillas, ¡rápido!
   y mucha cuchillería.
   Para mi amor, esto está muy Shanghai.


SOLO DE GUITARRA:
                              ^
E|---------------10----------(10~)|----12----------------------------------|---------------------
B|-----------10b----10br--10------|-15b---15-12-----------------15~--------|-------(15~)---------
G|-9~~--9-12----------------------|-------------14-12----12-15b----14-12---|-12-15---------------
D|--------------------------------|-------------------14----------------14-|---------------------
A|--------------------------------|----------------------------------------|---------------------
E|--------------------------------|----------------------------------------|---------------------
                                                                               vibrato
E|-------------------|--------------10----(12~)-/|-----------------------|-------------|---------
B|-------------------|---------8-10----12--------|------------------(7~~)|---(15-~~~~)-|---------
G|-12-11-12-11-------|-----7-9-------------------|----------------7------|-------------|---------
D|-------------(12)/x|-7/9-----------------------|-----5h7--(5~~~)-------|-------------|--------
A|-------------------|---------------------------|-5-7-------------------|-------------|--------
E|-------------------|---------------------------|-----------------------|-------------|--------

E|----12----------------------------------|--------------|------------------|--------------10--12
B|-15b---15-12-----------------15~--------|-------(15~)--|------------------|---------8-10---12--
G|-------------14-12----12-15b----14-12---|-12-15--------|12-11-12-11-------|-----7-9------------
D|-------------------14----------------14-|--------------|------------(12)/x|-7/9----------------
A|----------------------------------------|--------------|------------------|--------------------
E|----------------------------------------|--------------|------------------|--------------------


BAJO: (durante el solo)
   E              D                B         C
G|--------------|---------------|------------|-----
Suggest correction
Creating personal tab
Creating personal tab
You can edit any tab online and save it as your Personal.

You can edit, replace or remove any tab part or add personal notes – all changes will be seen only by you.

Personal tabs can be accessed anytime from any device, even offline.
Learn more »
Give kudos to tab author, rate the tab!
1 2 3 4 5
comments
print report bad tab
guest
Wanna post a correction for this tab? Suggest correction