Oops, an error
Loading. Please wait.

Yo Caníbal tab

version 3
version 3

Whole song

40 views 1 this week
no commentswrite comment
1 2 3 4 5
3 more votes to show rating
add to favorites
×
Save as Personal and add changes to this tab that will be seen only by you. Learn more ›
×
You can save this tab as Personal to edit and correct it or add notes. All changes will be seen only by you. Learn more »
launch autoscroll
font size
0
reset
how to read this tab
guitar tuner
edit
Autoscroll
slow
fast
+/-
esc
set tempo
stop
guitarra:
    RE                  SIb                 RE                 SIb
E|---------------------------------|--|-----------------------------------|--|
B|-------------------/--11-11-11-/-|--|--------------------/--11-11-11-/--|--|
G|-2-----------2-3-2-/--10-10-10-/-|x4|-2------------2-3-2-/--10-10-10-/--|x4|
D|-0--0-0-0-0--0-0-0---------------|--|-0---0-0-0-0--0-0-0----------------|--|
A|---------------------------------|--|-----------------------------------|--|
E|---------------------------------|--|-----------------------------------|--|
     PM......                              PM......
BAJO:
G|---------------------------------|--|-----------------------------------|--|
D|------------%--------------------|--|-----------------------------------|--|
A|---------------------------------|--|-5-5-5-5-5-5-5-5--5-/--------------|--|
E|---------------------------------|--|-----------------------6--6--6-----|--|

sigue....
 LAm                           SIb
E|-0-0-0-0-0--0------|-----------------------------------|-------|---------------------|---
B|-1-1-1-1-1----1----|-----------------------------------|-------|---------------------|---
G|-2-2-2-2-2------(2)|-(3)-3-3-3-3-3-3-3--3---3--3-3-3---|--LAm--|------SIb------------|---
D|-2-2-2-2-2---------|-(3)-3-3-3-3-3-3-3--3---3--3-3-3---|-------|---------------------|---
A|-0-0-0-0-0---------|-(1)-1-1-1-1-1-1-1--0-h-1--1-1-1-0-|-------|---------------------|---
E|-------------------|-----------------------------------|-------|---------------------|---
 
BAjO:  LA                SIb                                         SIb
G|-------------------|-----------------------------------|-------|---------------------|---
D|-------------------|-----------------------------------|-------|---------------------|---
A|-------------------|-----------------------------------|-LA----|---------------------|---
E|555555555555555555-|-6--6-6-6-6-6-6-6--5h6-6-6h5-6-5h6-|-------|-666666666-5h6-6666--|---

GUITARRA 2
            LAm        SIb                          LAm                SIb
E|----(0)------------|---------------------------|---------------|---------------------|---
B|----(1)------------|---------------------------|--5----5---5---|-6-5-------6-5-------|---
G|----(2)------------|-(3)-----------------------|----5----5-----|-----7---------7-----|(7)~~
D|----(2)------------|-(3)-----------------------|---------------|-------8~--------8~--|---
A|----(0)------------|-(1)-----------------------|---------------|---------------------|---
E|-------------------|---------------------------|---------------|---------------------|---


VERSO 1:  (Como intro)
guitarra:
    RE                  SIb              RE                 SIb
E|---------------------------------|-----------------------------------|--|
B|-------------------/--11-11-11-/-|--------------------/--11-11-11-/--|--|
G|-2-----------2-3-2-/--10-10-10-/-|-2------------2-3-2-/--10-10-10-/--|x2|
D|-0--0-0-0-0--0-0-0---------------|-0---0-0-0-0--0-0-0----------------|--|
A|---------------------------------|-----------------------------------|--|
E|---------------------------------|-----------------------------------|--|
     PM......                              PM......
BAJO:
G|---------------------------------|-----------------------------------|--|
D|---------------------------------|-----------------------------------|x2|
A|-5-5-5-5-5-5-5-5--5-/------------|-5-5-5-5-5-5-5-5--5-/--------------|--|
E|-----------------------6--6--6---|-----------------------6--6--6-----|--|


RE                        SIb    RE         SIb
No se entiende un menú pero la salsa abunda.
Soy un gourmet que huele eternamente mal.

ESTRIBILLO.
guitarra:

LAm                           SIb
E|-0-0-0-0-0--0------|-----------------------------------|-------|---------------------|
B|-1-1-1-1-1----1----|-----------------------------------|-------|---------------------|
G|-2-2-2-2-2------(2)|-(3)-3-3-3-3-3-3-3--3---3--3-3-3---|--LAm--|------SIb------------|
D|-2-2-2-2-2---------|-(3)-3-3-3-3-3-3-3--3---3--3-3-3---|-------|---------------------|
A|-0-0-0-0-0---------|-(1)-1-1-1-1-1-1-1--0-h-1--1-1-1-0-|-------|---------------------|
E|-------------------|-----------------------------------|-------|---------------------|
 
BAjO:  LA                SIb                                         SIb
G|-------------------|-----------------------------------|-------|---------------------|
D|-------------------|-----------------------------------|-------|---------------------|
A|-------------------|-----------------------------------|-LA----|---------------------|
E|555555555555555555-|-6--6-6-6-6-6-6-6--5h6-6-6h5-6-5h6-|-------|-666666666-5h6-6666--|

GUITARRA 2
            LAm        SIb                          LAm                SIb
E|----(0)------------|---------------------------|---------------|---------------------|
B|----(1)------------|---------------------------|--5----5---5---|---------------------|
G|----(2)------------|-(3)-----------------------|----5----5-----|-(3)-----------------|
D|----(2)------------|-(3)-----------------------|---------------|-(3)-----------------|
A|----(0)------------|-(1)-----------------------|---------------|-(1)-----------------|
E|-------------------|---------------------------|---------------|---------------------|


LAm
Viejas compotas que no dan respiro
SIb
Al caníbal que hay en mí,
LAm                                 SIb
Que no es bien recibido en un banquete así.


VERSO 2: (igual)

Se amasan las fortunas, se cargan los bolsillos.
De presa seca, de oro falso, de vermouth.


ESTRIBILLO 2 (IGUAL)

LAm
Me acaban el cerebro a mordiscos
SIb
Bebiendo el jugo de mi corazón
LAm                         SIb        
Y me cuentan cuentos al ir a dormir.  Ooh...


POS-ESTRIBILLO;

FA     DO5            SIb5
Un cordero de mi estilo.
FA    DO5             SIb5
Un caníbal de mi estilo.

guitarra:

E|----------|----------|---------------------------------|
B|----------|----------|---------------------------------|
G|----------|----------|---------------------------------|X2
D|--FA5-----|-Do5------|-(3)-3-3-3-3-3-3-3--3-3--3-3-3---|
A|----------|----------|-(1)-1-1-1-1-1-1-1--0h1--1-1-1-0-|
E|----------|----------|---------------------------------|

BAJO:  FA       DO       SIb
G|----------|----------|---------------------------------|
D|----------|----------|---------------------------------|x2
A|----------|----------|---------------------------------|
E|1-1-1-1-1-|-3-3-3-3-3|-6---6-6-6-6-6-6-6--5h6--6-6-6---|


SOLO DE SAXO:

CON base 
guitarra:
    RE                  SIb              RE                 SIb
E|---------------------------------|-----------------------------------|--|
B|-------------------/--11-11-11-/-|--------------------/--11-11-11-/--|--|
G|-2-----------2-3-2-/--10-10-10-/-|-2------------2-3-2-/--10-10-10-/--|x2|
D|-0--0-0-0-0--0-0-0---------------|-0---0-0-0-0--0-0-0----------------|--|
A|---------------------------------|-----------------------------------|--|
E|---------------------------------|-----------------------------------|--|
     PM......                              PM......
BAJO:
G|---------------------------------|-----------------------------------|--|
D|---------------------------------|-----------------------------------|x2|
A|-5-5-5-5-5-5-5-5--5-/------------|-5-5-5-5-5-5-5-5--5-/--------------|--|
E|-----------------------6--6--6---|-----------------------6--6--6-----|--|

SOLO DE GUITARRA:::

*el solo entra en la ultima vuelta de el solo de saxo ,,, (sobre el SIb)

    SIb                   LAm                  SIb                       LAm
E|--------------|-5~-------------------|-------------------------|--------------------|---------
B|----------6---|----------------------|-8-6-8-6--8/10--8---6-5-6|-(5)----------------|--------
G|------5-7---7-|------------------5-7-|-------------------------|-----5-(5)~-----5-7-|--------
D|--5-7---------|----7-(7)/1---5-7-----|-------------------------|------------5-7-----|--------
A|--------------|----------------------|-------------------------|--------------------|--------
E|--------------|----------------------|-------------------------|--------------------|--------
       SIb                         RE
E|-----------------------------|-(10)~~~-|
B|-8--6-8-6--8-6---8/10/8--6---|---------|  *NOTA: el bajo hace las tonicas (en corcheas)
G|---------------------------7-|---------|
D|-----------------------------|---------|
A|-----------------------------|---------|
E|-----------------------------|---------|


VERSO 3: (igual)


Voy al coliseo a prenderme fuego.
Mi racha de novato nunca cambiará.


ESTRIBILLO 3 (igual)

LAm
Por favor que el adiós no se alargue.
SIb
Me cansé de tanto esperar.
LAm                            SIb
Cuando el fuego crezca quiero estar allí.

y..

FINAL:

FA     DO5            SIb5
Un cordero de mi estilo.
FA    DO5             SIb5
Un caníbal de mi estilo.
FA     DO5            SIb5
Un cordero de mi estilo.

guitarra:

E|----------|----------|---------------------------------|
B|----------|----------|---------------------------------|
G|----------|----------|---------------------------------|X4
D|--FA5-----|-Do5------|-(3)-3-3-3-3-3-3-3--3-3--3-3-3---|
A|----------|----------|-(1)-1-1-1-1-1-1-1--0h1--1-1-1-0-|
E|----------|----------|---------------------------------|

BAJO:  FA       DO       SIb
G|----------|----------|---------------------------------|
D|----------|----------|---------------------------------|x4
A|----------|----------|---------------------------------|
E|1-1-1-1-1-|-3-3-3-3-3|-6---6-6-6-6-6-6-6--5h6--6-6-6---|


FA    DO5             SIb5           RE
Un caníbal de mi estilo.       uoo    Oooh


FINAL EN RE:..

E|-(2)---------|
B|-(3)---------|
G|-(2)---------|
D|-(0)---------|
A|-------------|
E|-------------|

bajo:
G|-------------|
D|-------------|
A|-(5)---------|
E|-------------|

fin.

            
            
Suggest correction
Creating personal tab
Creating personal tab
You can edit any tab online and save it as your Personal.

You can edit, replace or remove any tab part or add personal notes – all changes will be seen only by you.

Personal tabs can be accessed anytime from any device, even offline.
Learn more »
Give kudos to tab author, rate the tab!
1 2 3 4 5
comments
print report bad tab
guest
Wanna post a correction for this tab? Suggest correction