Oops, an error
Loading. Please wait.

Yo Caníbal tab

version 4
version 4

Whole song

40 views 1 this week
no commentswrite comment
1 2 3 4 5
3 more votes to show rating
add to favorites
×
Save as Personal and add changes to this tab that will be seen only by you. Learn more ›
×
You can save this tab as Personal to edit and correct it or add notes. All changes will be seen only by you. Learn more »
launch autoscroll
font size
0
reset
how to read this tab
guitar tuner
edit
Autoscroll
slow
fast
+/-
esc
set tempo
stop
YO CANIBAL

Riff 1

    D             D         Bb
E|-------------------------------------|
B|-------------------------------------|
G|--2-----2---2---3---2-----11-11-11/s-|
D|--0-0-0-0-0-0-0-0-0-0-0---10-10-10/s-|
A|-------------------------------------|
E|-------------------------------------|


Riff 2
       Am                    Bb                 Am
E|------------------0--------------------------0---0----0-1/0-----1/0----|
B|--------------------1--------------------------1---1--------3-------3--|
G|----------------------2---------------------------------------3------3-|
D|----2-------------------2-3-3-3-3-3-3-----3----------------------------|
A|----0-0-0-0-0-0-----------1-1-1-1-1-1-0-1-1----------------------------|
E|-----------------------------------------------------------------------|


Solo

E|--------------------5--------------------------------------------------|
B|------------6-6--------------------------8--6-8-6--8/\10-8-6--5-6-5----|
G|----------5-----7------------------5-7-----------------------------5~5-|
D|------5-7-------------7-7~/sl---5-7------------------------------------|
A|-----------------------------------------------------------------------|
E|-----------------------------------------------------------------------|


E|-----------------------------------------10~-----|
B|-----------8--6-8-6-8^6---8/10\8^6---------------|
G|------5-7---------------------------7------------|
D|--5-7--------------------------------------------|
A|-------------------------------------------------|
E|-------------------------------------------------|

Intro: Riff 1 x 8 + Riff 2 x1

Riff 1
No se entiende un menú pero la salsa abunda.
Soy un gourmet que huele eternamente mal.
Am
Viejas compotas que no dan respiro
Bb5
Al caníbal que hay en mí,
Am                                 Bb5
Que no es bien recibido en un banquete así.

Se amasan las fortunas, se cargan los bolsillos.
De presa seca, de oro falso, de vermouth.
Am
Me acaban el cerebro a mordiscos
Bb
Bebiendo el jugo de mi corazón
Am                         Bb
Y me cuentan cuentos al ir a dormir.  Ooh...

F      C5            Bb5
Un cordero de mi estilo.
F     C5             Bb5
Un caníbal de mi estilo.

Solo Saxo (Base: Riff 1 x4)
Solo Guitarra (Am Bb5 Am Bb5)

Voy al coliseo a prenderme fuego.
Mi racha de novato nunca cambiará.
Por favor que el adiós no se alargue.
Me cansé de tanto esperar.
Cuando el fuego crezca quiero estar allí.

Un cordero de mi estilo.
Un caníbal de mi estilo.

Un cordero de mi estilo
Un caníbal de mi estilo

Fin en D5.

            
            
Suggest correction
Creating personal tab
Creating personal tab
You can edit any tab online and save it as your Personal.

You can edit, replace or remove any tab part or add personal notes – all changes will be seen only by you.

Personal tabs can be accessed anytime from any device, even offline.
Learn more »
Give kudos to tab author, rate the tab!
1 2 3 4 5
comments
print report bad tab
guest
Wanna post a correction for this tab? Suggest correction