Oops, an error
Loading. Please wait.

Yo Caníbal tab

version 5
version 5

Whole song

28 views 1 this week
no commentswrite comment
1 2 3 4 5
3 more votes to show rating
add to favorites
×
Save as Personal and add changes to this tab that will be seen only by you. Learn more ›
×
You can save this tab as Personal to edit and correct it or add notes. All changes will be seen only by you. Learn more »
launch autoscroll
font size
0
reset
how to read this tab
guitar tuner
edit
Autoscroll
slow
fast
+/-
esc
set tempo
stop
LEYENDA:

s = slide
h = hammer on
* = repetir muchas veces
() = dejar nota sonando

=======================================
INTRO:

Guitarra 1:

Con distorcion

          Dm      Bb      Dm      Bb
e|-5------------------------------------
B|-5------------------------------------
G|-7------------------------------------
D|-7------8-7------------7-7--7-8-7-----
A|-5-5555555555555555555555555555555555-
E|--------------------------------------
                     \_________________/
                             x7
Despues sigue con un:

A5 - Bb5 - A5sBb5 - Bb5


Guitarra 2:
      Dm        Bb
e|--------------666-\
B|--------------666-| x8
G|--------------888-|
D|--------------888-|
A|------------------|
E|------------------/

  A5         Bb5   A5      Bb5
e|-------------------------------------------|
B|-5---------------5---5---6-5-----6-5-------|
G|---5---------------5---5-----7-------7-----|
D|-----7-------------------------8------7-8~-|
A|-------7-8---------------------------------|
E|-------------------------------------------|


Bajo:

Entra en el 5do compas

G|-------------- \
D|-------------- | x4
A|-------------- |
E|-10*-666-6/10- /

G|-------------------------| \
D|-------------------------| | x4
A|-------------------------| |
E|-5*--6*----5h6666-5h6666-| /


-----------------
ESTROFA:

Guitarra 1:                                          \
                                                |
e|-5------------------------------------                  |
B|-5------------------------------------                  |
G|-7------------------------------------                  |
D|-7------8-7------------7-7--7-8-7-----                  |
A|-5-5555555555555555555555555555555555-                  |
E|--------------------------------------                  |
                     \_________________/                  |
                             x7                              |
                                                |
Despues sigue con un:                                    |
                                                |x2
A5 - Bb5 - A5sBb5 - A5sBb5                              |
                                                |
Guitarra 2:                                          |
                                                |
e|--------------666-\                                    |
B|--------------666-| x8                              |
G|--------------777-|                                    |
D|------------------|                                    |
A|------------------|                                    |
E|------------------/                                    |
                                                |
                                                |
e|----------------------------------------|                  |
B|-5---------------5---5---6-5-----6-5----|                  |
G|---5---------------5---5-----7-------7--|                  |
D|-----7-------------------------8------8-|                  |
A|-------7-8------------------------------|                  |
E|----------------------------------------|                  |
                                                |
Bajo:                                                |
                                                |
G|-------------- \                                    |
D|-------------- | x4                                    |
A|-------------- |                                    |
E|-10*-666-6/10- /                                    |
                                                |
G|-------------------------| \                              |
D|-------------------------| | x4                        |
A|-------------------------| |                              |
E|-5*--6*----5h6666-5h6666-| /                              /


No se entiende un menú pero la salsa abunda.
Soy un gourmet que huele eternamente mal.
Am
Viejas compotas que no dan respiro
Bb
Al caníbal que hay en mí,
Am                                 Bb
Que no es bien recibido en un banquete así.


Se amasan las fortunas, se cargan los bolsillos.
De presa seca, de oro falso, de vermouth.
A5
Me acaban el cerebro a mordiscos
Bb5
Bebiendo el jugo de mi corazón
A5                         B5         C
Y me cuentan cuentos al ir a dormir.  Ooh...


-----------------
ESTRIBILLO:

Guitarra 1:

F5      C5           Bb5      A5sBb5 - A5sBb5
  Un cordero de mi estilo.
F5     C5            Bb5      A5sBb5 - A5sBb5
  Un caníbal de mi estilo.


Guitarra 2:

F - C - Bb x2

Bajo:

G|---------------------------|
D|---------------------------| x2
A|------3*-------------------|
E|-1*--------6*--5s665s666---|


----------------------------
SOLO:

Guitarra 1:

          Dm      Bb      Dm      Bb
e|-5------------------------------------
B|-5------------------------------------
G|-7------------------------------------
D|-7------8-7------------7-7--7-8-7-----
A|-5-5555555555555555555555555555555555-
E|--------------------------------------
                     \_________________/
                             x3

Despues sigue con un:

A5 - Bb5 - [A5sBb5 - A5sBb5] - A5 - Bb5 - [A5sBb5 - C5]


Guitarra 2:

Entra en la 2da parte

e|-----------------------------------------------------------------------------
B|----------------------10-----------------------------------------------------
G|-------------10-------------------------------12-10-12-10-12s13-12-10-9-10-9-
D|-------10-12----12-10-------------------10h12--------------------------------
A|-10-12--------------------12-s0---10h12--------------------------------------
E|-----------------------------------------------------------------------------


------------------------------------------------------10^-|
----------------------------------------------------------|
---------------------12-10-12-10-12-10-12s13s12-10--------|
10-10-s0-------10h12-------------------------------12-----|
---------10h12--------------------------------------------|
----------------------------------------------------------|


Bajo:

G|-------------- \
D|-------------- | x4
A|-------------- |
E|-10*-666-6/10- /

G|---------------------------|
D|---------------------------| x3
A|------3*-------------------|
E|-1*--------6*--5s665s666---|

G|-------------------------|
D|-------------------------|
A|-------------------------|
E|-5*--6*----5h6666-888888-|


-------------------------
ESTROFA:

Voy al coliseo a prenderme fuego.
Mi racha de novato nunca cambiará.
Por favor que el adiós no se alargue.
Me cansé de tanto esperar.
Cuando el fuego crezca quiero estar allí.


---------------------
ESTRIBILLO:

F5      C5           Bb5      A5sBb5 - A5sBb5
  Un cordero de mi estilo.
F5     C5            Bb5      A5sBb5 - A5sBb5
  Un caníbal de mi estilo.
F5      C5           Bb5      A5sBb5 - A5sBb5
  Un cordero de mi estilo.
F5     C5            Bb5
  Un caníbal de mi estilo.


------------------
FINAL:

Guitarra 1:

(D5)


Guitarra 2:

(Dm)

Bajo:

    D
G|-----|
D|-----|
A|-(5)-|
E|-----|

            
            
Suggest correction
Creating personal tab
Creating personal tab
You can edit any tab online and save it as your Personal.

You can edit, replace or remove any tab part or add personal notes – all changes will be seen only by you.

Personal tabs can be accessed anytime from any device, even offline.
Learn more »
Give kudos to tab author, rate the tab!
1 2 3 4 5
comments
print report bad tab
guest
Wanna post a correction for this tab? Suggest correction