Oops, an error
Loading. Please wait.
7 views 1 this week
no commentswrite comment
1 2 3 4 5
3 more votes to show rating
add to favorites
×
Save as Personal and add changes to this tab that will be seen only by you. Learn more ›
×
You can save this tab as Personal to edit and correct it or add notes. All changes will be seen only by you. Learn more »
launch autoscroll
font size
0
reset
transpose
0
reset
display chords
guitar tuner
edit
Autoscroll
slow
fast
+/-
esc
set tempo
stop
Strumming
There is no strumming pattern for this song yet. and get +5 IQ
Intro

e|------------------------------------------------|
B|------------------------------------------------|
G|-99999-999-66666-666-11111111-111111------------|
D|-99999-999-66666-666-11111111-111111--99999-999-|
A|-77777-777-44444-444--9 9 9 9-9 9 9---99999-999-|
E|--------------------------------------77777-777-|
    E          C#         F#            B

E                 C#
Su mensaje llegó a mí
F#               B
Hace tiempo ya lo ví
E          C#
No podía definir 
F#            B
lo que iba a sentir.

             A           B 
Ella decía: 'Te quiero, te extraño, 

A           B
no puedo evitarlo, 

A            B          C#    (A|-77-66-44-2-0)
no podré enfrentarlo mucho más, 

A            B
te siento, te amo'

A                 B
Dije: 'No podré enfrentarlo' 

E       C#      A           B             E  (Hace el Intro)
y mi verdad quiere a otra y no a la que me quiere. 


E            C#
Me decía lo mejor 
F#             B
Quiso darme su amor 
E                C#
Y mil cartas que ignoré
F#               B
sólo daban el por qué


             A           B
Ella decía: 'Te quiero, te extraño, 

A         B
no pude soportarlo, 

A          B            C#   (A|-77-66-44-2-0)
no pude aguantarlo mucho más, 

A           B
te siento. Te amo'

A                 B
Dije: 'No podré enfrentarlo' 

E       C#      A           B             E
y mi verdad quiere a otra y no a la que me quiere. 

Solo (Usálo como guía)

e|-------------------------------------------------------------|
B|-------------------13-14-16v-13-14-16-14-13------------------|
G|-------------16v-11-------------------------16-15p1614p15p14-|
D|-------------------------------------------------------------|
A|-------10-12-------------------------------------------------|
E|-10-12-------------------------------------------------------|
 |     p.m    |


e|-------------------------------------------------------------|
B|-------------------------------------------------------------|
G|---14-16-14-16-14v-14-14-13-11p13-10p11-11-11v-----------16v-|
D|-14------------------------------------------------14-16-----|
A|----------------------------------------------14-16----------|
E|-------------------------------------------------------------|
                                               |   p.m    |


e|---------------------------------------------------------------------------------|
B|---------------------------------------------------------------------------------|
G|-----13-14-16v-13-14-16-14-13-----------------14-16-14-16-14v-14-14p13p14-18v16v-|
D|---------------------------16-15p1614p15p14-14-----------------------------------|
A|-14-16---------------------------------------------------------------------------|
E|---------------------------------------------------------------------------------|


         A           B
Y dije: 'Te quiero, te extraño, 

A               B
ahora puedo apreciarlo'

A         B          C#  (A|-7-6-7-6-4-2-0)
Pero ya no te pude hablar 

A         B
Recuerdo dijiste 

A             B
'No podré soportarlo' 

E       C#    A           B
y era verdad en mí se fue tu vida 

E       C#      A             B          E (Hace el Intro)
Te iré a buscar, entregaré mis días si no estás

Termina así
e|-----|
B|-----|
G|-999-|Palm Mute
D|-999-|
A|-777-|
E|-----|
   E

            
            
Suggest correction
Creating personal tab
Creating personal tab
You can edit any tab online and save it as your Personal.

You can edit, replace or remove any tab part or add personal notes – all changes will be seen only by you.

Personal tabs can be accessed anytime from any device, even offline.
Learn more »
Give kudos to tab author, rate the tab!
1 2 3 4 5
comments
print report bad tab
guest
Wanna post a correction for this tab? Suggest correction