Oops, an error
Loading. Please wait.

Techos De Cartón tab

68 views 3 this week
no commentswrite comment
1 2 3 4 5
3 more votes to show rating
add to favorites
×
Save as Personal and add changes to this tab that will be seen only by you. Learn more ›
×
You can save this tab as Personal to edit and correct it or add notes. All changes will be seen only by you. Learn more »
launch autoscroll
font size
0
reset
how to read this tab
guitar tuner
edit
Autoscroll
slow
fast
+/-
esc
set tempo
stop
- LA CANCION NO ES COMPLICADA SOLO HAY Q MIRAR EL BIEN EL RITMO DE LOS
  ACORDES QUE HAFCE Y PUES ESTAR ATENTO A LOS CAMBIOS Y MIRARLA POR
  POR PARTES
- DUDAS, COMETTARIOS O CORRECCIONES AL CORREO ROCKANDRES182@

INTRO:
E|-------------------------------------------------------------|
B|-------------------------------------------------------------|
G|----15-17s19v--17p19h17p19h17p19h17p19h--17------------------|
D|-15-----------------------------------------17v--17b----15v--|
A|-------------------------------------------------------------|
E|-------------------------------------------------------------|

E|-----------------------------------------------------------|
B|--------------------------------15-------------------------|
G|-15-17b--15p17h15-15v--14-15-17----17-15-14-15-14-15-14----|
D|--------------------------------------------------------15-|
A|-----------------------------------------------------------|
E|-----------------------------------------------------------|

E|-------------------------------------------------------------|
B|-------------------------------------------------------------|
G|----15-17s19v--17p19h17p19h17p19h17p19h--17------------------|
D|-15-----------------------------------------17v--17b----15v--|
A|-------------------------------------------------------------|
E|-------------------------------------------------------------|

E|--------------------------|
B|--------------------------|
G|----15-17b--15p17h15-15v--|
D|-15-----------------------|
A|--------------------------|
E|--------------------------|

    A#5              D#5    F#5                 A#5
Que triste se oye la lluvia en los techos de cartón
    A#5             D#5  F#5
que triste vive mi gente en las casas de cartón.

E|-----------------------|
B|-----------------------|
G|-11---9---11---12-11-9-| X4
D|-11---9---11---12-11-9-|
A|-9--997-779--9910-9--7-|
E|-----------------------|
      **  **   **

A#5*                 D#5*   F#5*   D#5*      A#5*   A#5-A5-G5
Que triste se oye la lluvia en los techos de cartón
A#5*      A#5-D#5-F#5 D#5*  F#5*  D#5*     A#5*   A#5-A5-G5
que triste vive mi gente en las casas de cartón.
A#5*
Viene bajando el obrero casi
                                           D#5-F#5-D#5    D#5*
arrastrando sus pasos por el peso del sufrir
A#5*                 D#5*    F#5*             D#5*
mira que es mucho el sufrir, mira que pesa el sufrir.
A#5*                 D#5*
Arriba deja la mujer preñada,
               F#5*               D#5*      A#5-D#5-F#5
abajo está la ciudad y se pierde en su maraña.
A#5*                 D#5*        D#5*      A#5-A5-G5
Hoy es lo mismo que ayer de su vida sin mañana.


D#5*
Niños color de  mi tierra con sus mismas cicatrices
          D#5-F#5-D#5    D#5*
millonarios de lombrices
              A#5*              D#5*  F#5*   D#5*     A#5*     A#5-A5-G5
y por eso que tristes viven los niños en las casas de cartón
      A#5           D#5       F#5     D#5          A#5*
Y que alegres viven los perros en casa del explotador

D#5*
Usted no lo va a creer ,
                                          D#5-F#5-D#5    D#5*
pero hay escuelas de perros y les dan educación
                        A#5*
para que no muerdan los diarios
        D#5*        F#5*        D#5*                      A#5-A5-G5
pero el patrón hace años muchos años que está pisando al obrero


A#5*                 D#5*   F#5*   D#5*      A#5*   A#5-A5-G5
Que triste se oye la lluvia en los techos de cartón
A#5*      A#5-D#5-F#5 D#5*  F#5*  D#5*     A#5*   A#5-A5-G5
que triste vive mi gente en las casas de cartón.

ACORDES:
E|-----X-----X-----X-----X-----X-----| * = palm mute
B|-----X-----X-----X-----X-----X-----| b = bend (full)
G|-----X-----8-----10----X-----X-----| s = slide
D|-----8-----8-----10----7-----5-----| v = vibrato
A|-----8-----6-----8-----7-----5-----| h = hammer on
E|-----6-----X-----X-----5-----3-----| p = pull off
      A#5   D#5   F#5    A5    G5

            
            
Suggest correction
Creating personal tab
Creating personal tab
You can edit any tab online and save it as your Personal.

You can edit, replace or remove any tab part or add personal notes – all changes will be seen only by you.

Personal tabs can be accessed anytime from any device, even offline.
Learn more »
Give kudos to tab author, rate the tab!
1 2 3 4 5
comments
print report bad tab
guest
Wanna post a correction for this tab? Suggest correction