Oops, an error
Loading. Please wait.

Lo Hare Por Tí bass

37 views 1 this week
no commentswrite comment
1 2 3 4 5
3 more votes to show rating
add to favorites
×
Save as Personal and add changes to this tab that will be seen only by you. Learn more ›
×
You can save this tab as Personal to edit and correct it or add notes. All changes will be seen only by you. Learn more »
launch autoscroll
font size
0
reset
guitar tuner
edit
Autoscroll
slow
fast
+/-
esc
set tempo
stop
Transcribta por: Nestor Sadao Arechiga Cervantes

La afinacion del bajo es normal (E A D G)
Al Principio el Bajo esta callado y cuando empieza la bateria empieza: 

 Q=128
 4/4

  W          Q  E S S Q  Q    Q  E S S Q  +S  S E   Q  E S S Q  Q
|----------------|---------------------|----------------|
|----------------|---------------------|----------------|
|----------------|---------------------|----------------|
|-5----5---5-----|-5----5---5--(5)-----|-0----0---0-----|


  Q  E S S Q  Q    Q  E S S Q  Q    Q  E S S Q  Q    Q  E S S Q  Q
|----------------|----------------|----------------|----------------|
|----------------|----------------|----------------|----------------|
|----------------|----------------|----------------|-0----0---0-----|
|-0----0---0-----|-0----0---0-----|-0----0---0-----|----------------|


  Q  E S S Q  Q    Q  E S S Q  Q    Q  E S S Q  Q    Q  E S S Q  Q
|----------------|----------------|----------------|----------------|
|----------------|----------------|----------------|----------------|
|-0----0---0-----|-3----3---3-----|-3----3---3-----|----------------|
|----------------|----------------|----------------|-3----3---3-----|


  Q  +S  S S S Q  +S  S S S   Q  +S  S S S Q  Q    Q  +S  S S S Q  Q
|---------------------------|--------------------|---------------------|
|---------------------------|--------------------|---------------------|
|---------------------------|-5--(5)---5---5-----|-5--(5)---5---5------|
|-3--(3)---3---3--(3)---3---|--------------------|---------------------|


  Q  E S S E E E E   Q  E S S Q  E S S   E E E E Q  Q    E E E E Q  Q
|------------------|-------------------|---------------|----------------|
|-2----2---2-------|-------------------|---------------|----------------|
|----------------2-|-------------------|-0-----0----3--|-0-----0----3---|
|------------------|-0----0---0----0---|---------0-----|---------0------|


  E E E E Q  Q    E E E E Q  Q    Q  E E Q  Q    Q  E E Q  Q
|---------------|---------------|--------------|--------------|
|-2-----2-0-----|-2-----2-0-----|-2----2-0-----|-2----2-0-----|
|------------0--|------------0--|-----------0--|--------------|
|---------------|---------------|--------------|-----------0--|


  Q  E E Q  Q    Q  E E Q  Q    Q  E E Q  Q    E E E E Q  Q
|--------------|--------------|--------------|---------------|
|--------------|--------------|--------------|---------------|
|-0----0----3--|-0----0----3--|-0----0----3--|-0-----0----3--|
|--------0-----|--------0-----|--------0-----|---------0-----|


  E E E E Q  Q    Q  E E Q  Q    Q  E E Q  Q    Q  E E Q  Q
|---------------|--------------|--------------|--------------|
|-2-----2-0-----|-2----2-0-----|-2----2-0-----|-2----2-0-----|
|------------0--|-----------0--|-----------0--|--------------|
|---------------|--------------|--------------|-----------0--|


  Q  E E Q  Q    Q  E E Q  Q    Q  E S S Q  Q    Q  E S S Q  +S  S E
|--------------|--------------|----------------|----------------------|
|--------------|--------------|----------------|----------------------|
|-0----0----3--|-0----0----3--|-0----0---0-----|-0----0---0--(0)------|
|--------0-----|--------0-----|----------------|----------------------|


  Q  E S S Q  Q    Q  E S S Q  Q    Q  E S S Q  Q    Q  E S S Q  Q
|----------------|----------------|----------------|----------------|
|----------------|----------------|----------------|----------------|
|----------------|----------------|----------------|----------------|
|-0----0---0-----|-0----0---0-----|-0----0---0-----|-0----0---0-----|


  Q  E S S Q  Q    Q  E S S Q  Q    Q  E S S Q  Q    Q  E S S Q  Q
|----------------|----------------|----------------|----------------|
|----------------|----------------|----------------|----------------|
|-0----0---0-----|-0----0---0-----|-3----3---3-----|-3----3---3-----|
|----------------|----------------|----------------|----------------|


  Q  E S S Q  Q    Q  +S  S S S Q  +S  S S S   Q  +S  S S S Q  Q
|----------------|---------------------------|--------------------|
|----------------|---------------------------|--------------------|
|----------------|---------------------------|-5--(5)---5---5-----|
|-3----3---3-----|-3--(3)---3---3--(3)---3---|--------------------|


  Q  +S  S S S Q  Q    Q  E S S E E E E   Q  E S S Q  E S S   E E E E Q  Q
|--------------------|------------------|-------------------|----------------|
|--------------------|-2----2---2-------|-------------------|----------------|
|-5--(5)---5---5-----|----------------2-|-------------------|-0-----0----3---|
|--------------------|------------------|-0----0---0----0---|---------0------|


  E E E E Q  Q    E E E E Q  Q    E E E E Q  Q    Q  E E Q  Q
|---------------|---------------|---------------|--------------|
|---------------|-2-----2-0-----|-2-----2-0-----|-2----2-0-----|
|-0-----0----3--|------------0--|------------0--|-----------0--|
|---------0-----|---------------|---------------|--------------|


  Q  E E Q  Q    Q  E E Q  Q    Q  E E Q  Q    Q  E E Q  Q
|--------------|--------------|--------------|--------------|
|-2----2-0-----|--------------|--------------|--------------|
|--------------|-0----0----3--|-0----0----3--|-0----0----3--|
|-----------0--|--------0-----|--------0-----|--------0-----|


  E E E E Q  Q    E E E E Q  Q    Q  E E Q  Q    Q  E E Q  Q
|---------------|---------------|--------------|--------------|
|---------------|-2-----2-0-----|-2----2-0-----|-2----2-0-----|
|-0-----0----3--|------------0--|-----------0--|-----------0--|
|---------0-----|---------------|--------------|--------------|


  Q  E E Q  Q    Q  E E Q  Q    Q  E E Q  Q    Q  E S S Q  Q
|--------------|--------------|--------------|-----------------|
|-2----2-0-----|--------------|--------------|-----------------|
|--------------|-0----0----3--|-0----0----3--|-0----0---0------|
|-----------0--|--------0-----|--------0-----|-----------------|


  Q  E S S Q  +S  S E   Q  E S S Q  Q    Q  E S S Q  Q    Q  E S S Q  Q
|---------------------|----------------|----------------|-----------------|
|---------------------|----------------|----------------|-----------------|
|-0----0---0--(0)-----|----------------|----------------|-----------------|
|---------------------|-0----0---0-----|-0----0---0-----|-0----0---0------|


  Q  E S S Q  Q    Q  E S S Q  Q    Q  E S S Q  Q    Q  E S S Q  Q
|----------------|----------------|----------------|----------------|
|----------------|----------------|----------------|----------------|
|----------------|-0----0---0-----|-0----0---0-----|-3----3---3-----|
|-0----0---0-----|----------------|----------------|----------------|


  Q  E S S Q  Q    Q  E S S Q  Q    Q  +S  S S S Q  +S  S S S
|----------------|----------------|---------------------------|
|----------------|----------------|---------------------------|
|-3----3---3-----|----------------|---------------------------|
|----------------|-3----3---3-----|-3--(3)---3---3--(3)---3---|


  Q  +S  S S S Q  Q    Q  +S  S S S Q  Q    Q  E S S E E E E
|--------------------|--------------------|-------------------|
|--------------------|--------------------|-2----2---2--------|
|-5--(5)---5---5-----|-5--(5)---5---5-----|----------------2--|
|--------------------|--------------------|-------------------|


  Q  E S S Q  E S S   E E E E Q  Q    E E E E Q  Q    E E E E Q  Q
|-------------------|---------------|---------------|---------------|
|-------------------|---------------|---------------|-2-----2-0-----|
|-------------------|-0-----0----3--|-0-----0----3--|------------0--|
|-0----0---0----0---|---------0-----|---------0-----|---------------|


  E E E E Q  Q    Q  E E Q  Q    Q  E E Q  Q    Q  E E Q  Q
|---------------|--------------|--------------|--------------|
|-2-----2-0-----|-2----2-0-----|-2----2-0-----|--------------|
|------------0--|-----------0--|--------------|-0----0----3--|
|---------------|--------------|-----------0--|--------0-----|


  Q  E E Q  Q    Q  E E Q  Q    E E E E Q  Q    E E E E Q  Q
|--------------|--------------|---------------|---------------|
|--------------|--------------|---------------|-2-----2-0-----|
|-0----0----3--|-0----0----3--|-0-----0----3--|------------0--|
|--------0-----|--------0-----|---------0-----|---------------|


  Q  E E Q  Q    Q  E E Q  Q    Q  E E Q  Q    Q  E E Q  Q
|--------------|--------------|--------------|--------------|
|-2----2-0-----|-2----2-0-----|-2----2-0-----|--------------|
|-----------0--|-----------0--|--------------|-0----0----3--|
|--------------|--------------|-----------0--|--------0-----|


  Q  E E Q  Q    E E E E Q  Q    E E E E Q  Q    E E E E Q  Q
|--------------|---------------|---------------|---------------|
|--------------|---------------|---------------|-2-----2-0-----|
|-0----0----3--|-0-----0----3--|-0-----0----3--|------------0--|
|--------0-----|---------0-----|---------0-----|---------------|


  E E E E Q  Q    Q  E E Q  Q    Q  E E Q  Q    Q  E E Q  Q
|---------------|--------------|--------------|--------------|
|-2-----2-0-----|-2----2-0-----|-2----2-0-----|--------------|
|------------0--|-----------0--|--------------|-0----0----3--|
|---------------|--------------|-----------0--|--------0-----|


  Q  E E Q  Q    Q  E E Q  Q    E E E E Q  Q    E E E E Q  Q
|--------------|--------------|---------------|---------------|
|--------------|--------------|---------------|-2-----2-0-----|
|-0----0----3--|-0----0----3--|-0-----0----3--|------------0--|
|--------0-----|--------0-----|---------0-----|---------------|


  Q  E E Q  Q    Q  E E Q  Q    Q  E E Q  Q    Q  E E Q  Q
|--------------|--------------|--------------|--------------|
|-2----2-0-----|-2----2-0-----|-2----2-0-----|--------------|
|-----------0--|-----------0--|--------------|-0----0----3--|
|--------------|--------------|-----------0--|--------0-----|


  Q  E E Q  Q    S S E E S S S S E E E   E E Q  H
|--------------|-----------------------|-------------*|
|--------------|-----------------------|-------------*|
|-0----0----3--|-0---0-----------------|-0-----------*|
|--------0-----|---------3---3-------0-|-------------*|

FIN!!!
- BUENO AQUI ABAJO ESTA EL SIGNIFICADO DE LAS LETRAS Y LOS SIGNOS...
- ESPERO QUE LES HAYA AGRADADO Y SOBRETODO QUE LE HAYAN ENTENDIDO...
- POR SI ALGUNA RAZON NO LE ENTIENDEN PUES HECHENME UN MAIL A: sNaKePiTs@
- SI QUIEREN ALGUNA PETICION PUES TAMBIEN HECHENME UN MAIL...
- ESTA CANCION Y OTRAS LAS TENGO EN ARCHIVOS POWERTAB, POR SI ALGUIEN LA QUIERE...
  PUES HECHENME UN MAIL PIDIENDOLAS...
- LOS VERE EN LA PROXIMA CANCION!!!...


Duration Legend
---------------
W - whole; H - half; Q - quarter; E - 8th; S - 16th; T - 32nd; X - 64th; a - acciaccatura
+ - note tied to previous; . - note dotted; .. - note double dotted
Uncapitalized letters represent notes that are staccato (1/2 duration)
Irregular groupings are notated above the duration line
Duration letters will always appear directly above the note/fret number it represents the
duration for.  Duration letters with no fret number below them represent rests.  Multi-
bar rests are notated in the form Wxn, where n is the number of bars to rest for.  Low
melody durations appear below the staff


Misc Legend
-----------
 |  - bar
||  - double bar
||o - repeat start
o|| - repeat end
*|  - double bar (ending)
 :  - bar (freetime)
 $  - Segno
 &  - Coda
Tempo markers - <E/E./Q/Q./H/H.> = BPM(8/16=s8/s16), where s8 = swing 8ths, s16 = swing 16ths
Suggest correction
Creating personal tab
Creating personal tab
You can edit any tab online and save it as your Personal.

You can edit, replace or remove any tab part or add personal notes – all changes will be seen only by you.

Personal tabs can be accessed anytime from any device, even offline.
Learn more »
Give kudos to tab author, rate the tab!
1 2 3 4 5
comments
print report bad tab
guest
Wanna post a correction for this tab? Suggest correction