Oops, an error
Loading. Please wait.

Y Yo Sigo Aquí tab

45 views 1 this week
no commentswrite comment
1 2 3 4 5
3 more votes to show rating
add to favorites
×
Save as Personal and add changes to this tab that will be seen only by you. Learn more ›
×
You can save this tab as Personal to edit and correct it or add notes. All changes will be seen only by you. Learn more »
launch autoscroll
font size
0
reset
how to read this tab
guitar tuner
edit
Autoscroll
slow
fast
+/-
esc
set tempo
stop
Transcrita por: Nestor Sadao Arechiga Cervantes (sNaKePiTs@

Gtr I (E A D G B E) - guitarra ritmica
Gtr II (E A D G B E) - Areglos

  Q=125
 4/4
  Gtr I
  W          S E  S E  S S S E  S Q
|----------|-0----1----1---3----3------|
|----------|-1----3----3---5----5------|
|----------|-2----3----3---5----5------|
|----------|---------------------------|
|----------|---------------------------|
|----------|---------------------------|


  S E  S E  S S S E  S Q      S E  S E  S S S E  S Q
|-3----1----1---0----0------|-0----1----1---3----3------|
|-5----3----3---1----1------|-1----3----3---5----5------|
|-5----3----3---2----2------|-2----3----3---5----5------|
|---------------------------|---------------------------|
|---------------------------|---------------------------|
|---------------------------|---------------------------|


  S E  S E  S S H      S E  S E  S S S E  S Q
|-3----1----1--------|-0----1----1---3----3------|
|-5----2----2--------|-1----3----3---5----5------|
|-5----3----3--------|-2----3----3---5----5------|
|--------------------|---------------------------|
|--------------------|---------------------------|
|--------------------|---------------------------|


  S E  S E  S S S E  S Q      S E  S E  S S S E  S Q
|-3----1----1---0----0------|-0----1----1---3----3------|
|-5----3----3---1----1------|-1----3----3---5----5------|
|-5----3----3---2----2------|-2----3----3---5----5------|
|---------------------------|---------------------------|
|---------------------------|---------------------------|
|---------------------------|---------------------------|


  S E  S E  S S S E  S Q      S E  S E  S S S E  S Q
|-3----1----1---0----0------|-0----1----1---3----3------|
|-5----3----3---1----1------|-1----3----3---5----5------|
|-5----3----3---2----2------|-2----3----3---5----5------|
|---------------------------|---------------------------|
|---------------------------|---------------------------|
|---------------------------|---------------------------|


  S E  S E  S S S E  S Q      S E  S E  S S S E  S Q
|-3----1----1---0----0------|-0----1----1---3----3------|
|-5----3----3---1----1------|-1----3----3---5----5------|
|-5----3----3---2----2------|-2----3----3---5----5------|
|---------------------------|---------------------------|
|---------------------------|---------------------------|
|---------------------------|---------------------------|


                                 Gtr II
  S E  S E  S S S E  S S S S S   S E S E S S S E S E S S
|-3----1----1---0----0-3-3-----|-------------------------|
|-5----3----3---1----1-----3---|-----3---3-------3---3---|
|-5----3----3---2----2---------|-------------------------|
|------------------------------|-------------------------|
|------------------------------|-3-----------3-----------|
|------------------------------|-------------------------|


  S E S E S S S E S E S S   S E S E S S S E S E S S   S E S E S S S E S E S S
|-------------------------|-------------------------|--------------------------|
|-----3---3-------3---3---|-----3---3-------3---3---|-----3---3-------3---3----|
|-------------------------|-------------------------|--------------------------|
|-------------------------|-------------------------|--------------------------|
|-3-----------3-----------|-3-----------3-----------|-3-----------3------------|
|-------------------------|-------------------------|--------------------------|


  S E S E S S S E S E S S   S E S E S S S E S E S S   S E S E S S S E S E S S
|-------------------------|-------------------------|--------------------------|
|-----3---3-------3---3---|-----3---3-------3---3---|-----3---3-------3---3----|
|-------------------------|-------------------------|--------------------------|
|-------------------------|-------------------------|--------------------------|
|-3-----------3-----------|-3-----------3-----------|-3-----------3------------|
|-------------------------|-------------------------|--------------------------|


  Gtr I
  W                         S S E   S S E   S S E   Q
|-------------------------|-------------------------------|
|-------------------------|-1-------3-------5-------------|
|-------------------------|-2-------3-------5-------------|
|-------------------------|-3-------3-------5-------------|
|-------------------------|-------------------------------|
|-------------------------|-------------------------------|
|
| Gtr II
| S E S E S S S E S E S S   S E   S E   S S S E   S E S S
|-------------------------|-------------------------------|
|-----3---3-------3---3---|-------3-----3---------3---3---|
|-------------------------|-------------------------------|
|-------------------------|-------------------------------|
|-3-----------3-----------|-3---------------3-------------|
|-------------------------|-------------------------------|


  S S E   S S E   S S E   Q
|-------------------------------|
|-5-------3-------1-------------|
|-5-------3-------2-------------|
|-5-------3-------3-------------|
|-------------------------------|
|-------------------------------|
|
| S E   S E   S S S E   S E S S
|-------------------------------|
|-------3-----3---------3---3---|
|-------------------------------|
|-------------------------------|
|-3---------------3-------------|
|-------------------------------|


  S S E   S S E   S S E   Q
|-------------------------------|
|-1-------3-------5-------------|
|-2-------3-------5-------------|
|-3-------3-------5-------------|
|-------------------------------|
|-------------------------------|
|
| S E   S E   S S S E   S E S S
|-------------------------------|
|-------3-----3---------3---3---|
|-------------------------------|
|-------------------------------|
|-3---------------3-------------|
|-------------------------------|


  S S E   S S E   S S E   Q       S S E   S S E   S S E   Q
|-------------------------------|-------------------------------|
|-5-------3-------1-------------|-1-------3-------5-------------|
|-5-------3-------2-------------|-2-------3-------5-------------|
|-5-------3-------3-------------|-3-------3-------5-------------|
|-------------------------------|-------------------------------|
|-------------------------------|-------------------------------|
|
| S E   S E   S S S E   S E S S   S E   S E   S S S E   S E S S
|-------------------------------|-------------------------------|
|-------3-----3---------3---3---|-------3-----3---------3---3---|
|-------------------------------|-------------------------------|
|-------------------------------|-------------------------------|
|-3---------------3-------------|-3---------------3-------------|
|-------------------------------|-------------------------------|


  S S E   S S E   S S E   Q
|-------------------------------|
|-5-------3-------1-------------|
|-5-------3-------2-------------|
|-5-------3-------3-------------|
|-------------------------------|
|-------------------------------|
|
| S E   S E   S S S E   S E S S
|-------------------------------|
|-------3-----3---------3---3---|
|-------------------------------|
|-------------------------------|
|-3---------------3-------------|
|-------------------------------|


  S S E   S S E   S S E   Q       S S E   S S E   S S E   Q
|-------------------------------|-------------------------------|
|-1-------3-------5-------------|-5-------3-------1-------------|
|-2-------3-------5-------------|-5-------3-------2-------------|
|-3-------3-------5-------------|-5-------3-------3-------------|
|-------------------------------|-------------------------------|
|-------------------------------|-------------------------------|
|
| S E   S E   S S S E   S E S S   S E   S E   S S S E   S E S S
|-------------------------------|-------------------------------|
|-------3-----3---------3---3---|-------3-----3---------3---3---|
|-------------------------------|-------------------------------|
|-------------------------------|-------------------------------|
|-3---------------3-------------|-3---------------3-------------|
|-------------------------------|-------------------------------|


 2/4               4/4
  S S E   S S E     E S S E   S S E S S E   S S   E S S E   S S E S S E   S S
|-----------------|---0-0-----0-----0-0-----0---|------------------------------|
|-1-------3-------|---1-1-----1-----1-1-----1---|---1-1-----1-----1-1-----1----|
|-2-------3-------|---0-0-----0-----0-0-----0---|---2-2-----2-----2-2-----2----|
|-3-------3-------|-----------------------------|---3-3-----3-----3-------3----|
|-----------------|-----------------------------|------------------------------|
|-----------------|-----------------------------|------------------------------|
|
| S E   S S S S S   E S S S S S S E S S S S S S   E S S S S S S E S S S S S S
|-----------------|---6-6-6---6-----6-6-6---6---|---6-6-6---6-----6-6-6---6----|
|---------3---3---|-----------------------------|------------------------------|
|-------5---------|-----------------------------|------------------------------|
|-5---------------|-----------------------------|------------------------------|
|-----------------|-----------------------------|------------------------------|
|-----------------|-----------------------------|------------------------------|


  E S S E   S S E S S E   S S   E S S E   S S E S S E   S S
|---0-0-----0-----0-0-----0---|-----------------------------|
|---1-1-----1-----1-1-----1---|---1-1-----1-----1-1-----1---|
|---0-0-----0-----0-0-----0---|---2-2-----2-----2-2-----2---|
|-----------------------------|---3-3-----3-----3-3-----3---|
|-----------------------------|-----------------------------|
|-----------------------------|-----------------------------|
|
| E S S S S S S E S S S S S S   E S S S S S S E S S S S S S
|---6-6-6---6-----6-6-6---6---|---6-6-6---6-----6-6-6---6---|
|-----------------------------|-----------------------------|
|-----------------------------|-----------------------------|
|-----------------------------|-----------------------------|
|-----------------------------|-----------------------------|
|-----------------------------|-----------------------------|


  E S S E   S S E S S E   S S   E S S E   S S E S S E   S S
|---0-0-----0-----0-0-----0---|-----------------------------|
|---1-1-----1-----1-1-----1---|---1-1-----1-----1-1-----1---|
|---0-0-----0-----0-0-----0---|---2-2-----2-----2-2-----2---|
|-----------------------------|---3-3-----3-----3-3-----3---|
|-----------------------------|-----------------------------|
|-----------------------------|-----------------------------|
|
| E S S S S S S E S S S S S S   E S S S S S S E S S S S S S
|---6-6-6---6-----6-6-6---6---|---6-6-6---6-----6-6-6---6---|
|-----------------------------|-----------------------------|
|-----------------------------|-----------------------------|
|-----------------------------|-----------------------------|
|-----------------------------|-----------------------------|
|-----------------------------|-----------------------------|


  E S S E   S S E S S E   S S   H.                   Q
|---0-0-----0-----0-0-----0---|-1----------------------------|
|---1-1-----1-----1-1-----1---|-1----------------------------|
|---0-0-----0-----0-0-----0---|-2----------------------------|
|-----------------------------|------------------------------|
|-----------------------------|------------------------------|
|-----------------------------|------------------------------|
|
| E S S S S S S E S S S S S S   E  S S S S S S E S S S S S S
|---6-6-6---6-----6-6-6---6---|----6-6-6---6-----6-6-6---6---|
|-----------------------------|------------------------------|
|-----------------------------|------------------------------|
|-----------------------------|------------------------------|
|-----------------------------|------------------------------|
|-----------------------------|------------------------------|


  Q     +S  S E   Q     Q
|-----------------------------|
|-5-----(5)-------------3-----|
|-5-----(5)-------------3-----|
|-5-----(5)-------------3-----|
|-----------------------------|
|-----------------------------|
|
| S E S  E    S S S E S E S S
|-----------------------------|
|-----3-------3-------3---3---|
|-----------------------------|
|-----------------------------|
|-3---------------3-----------|
|-----------------------------|


  Q     +S  S E   Q     E E     Q     +S  S E   Q     Q
|-----------------------------|-----------------------------|
|-1-----(1)-------------3-----|-5-----(5)-------------3-----|
|-2-----(2)-------------3-----|-5-----(5)-------------3-----|
|-3-----(3)-------------3-----|-5-----(5)-------------3-----|
|-----------------------------|-----------------------------|
|-----------------------------|-----------------------------|
|
| S E S  E    S S S E S E S S   S E S  E    S S S E S E S S
|-----------------------------|-----------------------------|
|-----3-------3-------3---3---|-----3-------3-------3---3---|
|-----------------------------|-----------------------------|
|-----------------------------|-----------------------------|
|-3---------------3-----------|-3---------------3-----------|
|-----------------------------|-----------------------------|


  Q     +S  S E   Q     E E
|-----------------------------|
|-1-----(1)-------------3-----|
|-2-----(2)-------------3-----|
|-3-----(3)-------------3-----|
|-----------------------------|
|-----------------------------|
|
| S E S  E    S S S E S E S S
|-----------------------------|
|-----3-------3-------3---3---|
|-----------------------------|
|-----------------------------|
|-3---------------3-----------|
|-----------------------------|


  Q.       E   Q     Q       H           Q     E E
|--------------------------|-------------------------|
|-5------------------3-----|-1-----------------3-----|
|-5------------------3-----|-2-----------------3-----|
|-5------------------3-----|-3-----------------3-----|
|--------------------------|-------------------------|
|--------------------------|-------------------------|
|
| S  E S E S S S E S E S S   S E S E S S S E S E S S
|--------------------------|-------------------------|
|------3---3-------3---3---|-----3---3-------3---3---|
|--------------------------|-------------------------|
|--------------------------|-------------------------|
|-3------------3-----------|-3-----------3-----------|
|--------------------------|-------------------------|


                            2/4               4/4
  Q.       E   Q     Q       Q     +S  S E     S E   S E  S S S E  S Q
|--------------------------|-----------------|-0-----1----1---3----3------|
|-5------------------3-----|-1-----(1)-------|-1-----3----3---5----5------|
|-5------------------3-----|-2-----(2)-------|-2-----3----3---5----5------|
|-5------------------3-----|-3-----(3)-------|----------------------------|
|--------------------------|-----------------|----------------------------|
|--------------------------|-----------------|----------------------------|
|
| S  E S E S S S E S E S S   S E S  S  S S S       W
|--------------------------|-----------------|----------------------------|
|------3---3-------3---3---|--------3----3---|----------------------------|
|--------------------------|-----5-----------|----------------------------|
|--------------------------|-5---------------|----------------------------|
|-3------------3-----------|-----------------|----------------------------|
|--------------------------|-----------------|----------------------------|


  S E  S E  S S S E  S Q      S E  S E  S S S E  S Q
|-3----1----1---0----0------|-0----1----1---3----3------|
|-5----3----3---1----1------|-1----3----3---5----5------|
|-5----3----3---2----2------|-2----3----3---5----5------|
|---------------------------|---------------------------|
|---------------------------|---------------------------|
|---------------------------|---------------------------|


  S E  S E  S S S E  S Q      S E  S E  S S S E  S Q
|-3----1----1---0----0------|-0----1----1---3----3------|
|-5----3----3---1----1------|-1----3----3---5----5------|
|-5----3----3---2----2------|-2----3----3---5----5------|
|---------------------------|---------------------------|
|---------------------------|---------------------------|
|---------------------------|---------------------------|


  S E  S E  S S S E  S Q      S E  S E  S S S E  S Q
|-3----1----1---0----0------|-0----1----1---3----3------|
|-5----3----3---1----1------|-1----3----3---5----5------|
|-5----3----3---2----2------|-2----3----3---5----5------|
|---------------------------|---------------------------|
|---------------------------|---------------------------|
|---------------------------|---------------------------|


                              Gtr II
  S E  S E  S S S E  S Q      S E S E S S S E S E S S
|-3----1----1---0----0------|-------------------------|
|-5----3----3---1----1------|-----3---3-------3---3---|
|-5----3----3---2----2------|-------------------------|
|---------------------------|-------------------------|
|---------------------------|-3-----------3-----------|
|---------------------------|-------------------------|


  Gtr II
  S E S E S S S E S E S S   S E S E S S S E S E S S   S E S E S S S E S E S S
|-------------------------|-------------------------|--------------------------|
|-----3---3-------3---3---|-----3---3-------3---3---|-----3---3-------3---3----|
|-------------------------|-------------------------|--------------------------|
|-------------------------|-------------------------|--------------------------|
|-3-----------3-----------|-3-----------3-----------|-3-----------3------------|
|-------------------------|-------------------------|--------------------------|


  S E S E S S S E S E S S   S E S E S S S E S E S S   S E S E S S S E S E S S
|-------------------------|-------------------------|--------------------------|
|-----3---3-------3---3---|-----3---3-------3---3---|-----3---3-------3---3----|
|-------------------------|-------------------------|--------------------------|
|-------------------------|-------------------------|--------------------------|
|-3-----------3-----------|-3-----------3-----------|-3-----------3------------|
|-------------------------|-------------------------|--------------------------|


  Gtr I
  W                         S S E   S S E   S S E   Q
|-------------------------|-------------------------------|
|-------------------------|-1-------3-------5-------------|
|-------------------------|-2-------3-------5-------------|
|-------------------------|-3-------3-------5-------------|
|-------------------------|-------------------------------|
|-------------------------|-------------------------------|
|
| Gtr II
| S E S E S S S E S E S S   S E   S E   S S S E   S E S S
|-------------------------|-------------------------------|
|-----3---3-------3---3---|-------3-----3---------3---3---|
|-------------------------|-------------------------------|
|-------------------------|-------------------------------|
|-3-----------3-----------|-3---------------3-------------|
|-------------------------|-------------------------------|


  S S E   S S E   S S E   Q
|-------------------------------|
|-5-------3-------1-------------|
|-5-------3-------2-------------|
|-5-------3-------3-------------|
|-------------------------------|
|-------------------------------|
|
| S E   S E   S S S E   S E S S
|-------------------------------|
|-------3-----3---------3---3---|
|-------------------------------|
|-------------------------------|
|-3---------------3-------------|
|-------------------------------|


  S S E   S S E   S S E   Q
|-------------------------------|
|-1-------3-------5-------------|
|-2-------3-------5-------------|
|-3-------3-------5-------------|
|-------------------------------|
|-------------------------------|
|
| S E   S E   S S S E   S E S S
|-------------------------------|
|-------3-----3---------3---3---|
|-------------------------------|
|-------------------------------|
|-3---------------3-------------|
|-------------------------------|


  S S E   S S E   S S E   Q       S S E   S S E   S S E   Q
|-------------------------------|-------------------------------|
|-5-------3-------1-------------|-1-------3-------5-------------|
|-5-------3-------2-------------|-2-------3-------5-------------|
|-5-------3-------3-------------|-3-------3-------5-------------|
|-------------------------------|-------------------------------|
|-------------------------------|-------------------------------|
|
| S E   S E   S S S E   S E S S   S E   S E   S S S E   S E S S
|-------------------------------|-------------------------------|
|-------3-----3---------3---3---|-------3-----3---------3---3---|
|-------------------------------|-------------------------------|
|-------------------------------|-------------------------------|
|-3---------------3-------------|-3---------------3-------------|
|-------------------------------|-------------------------------|


  S S E   S S E   S S E   Q
|-------------------------------|
|-5-------3-------1-------------|
|-5-------3-------2-------------|
|-5-------3-------3-------------|
|-------------------------------|
|-------------------------------|
|
| S E   S E   S S S E   S E S S
|-------------------------------|
|-------3-----3---------3---3---|
|-------------------------------|
|-------------------------------|
|-3---------------3-------------|
|-------------------------------|


  S S E   S S E   S S E   Q       S S E   S S E   S S E   Q
|-------------------------------|-------------------------------|
|-1-------3-------5-------------|-5-------3-------1-------------|
|-2-------3-------5-------------|-5-------3-------2-------------|
|-3-------3-------5-------------|-5-------3-------3-------------|
|-------------------------------|-------------------------------|
|-------------------------------|-------------------------------|
|
| S E   S E   S S S E   S E S S   S E   S E   S S S E   S E S S
|-------------------------------|-------------------------------|
|-------3-----3---------3---3---|-------3-----3---------3---3---|
|-------------------------------|-------------------------------|
|-------------------------------|-------------------------------|
|-3---------------3-------------|-3---------------3-------------|
|-------------------------------|-------------------------------|


 2/4               4/4
  S S E   S S E     S S E   S S E   S S E   S S E
|-----------------|-0-0-----0-------0-0-----0-------|
|-1-------3-------|-1-1-----1-------1-1-----1-------|
|-2-------3-------|-0-0-----0-------0-0-------0-----|
|-3-------3-------|---------------------------------|
|-----------------|---------------------------------|
|-----------------|---------------------------------|
|
| S E   S S S S S   E   S S S S S S E   S S S S S S
|-----------------|-----6-6-6---6-------6-6-6---6---|
|---------3---3---|---------------------------------|
|-------5---------|---------------------------------|
|-5---------------|---------------------------------|
|-----------------|---------------------------------|
|-----------------|---------------------------------|


  S S E   S S E   S S E   S S E
|---------------------------------|
|-1-1-----1-------1-1-----1-------|
|-2-2-----2-------2-2-----2-------|
|-3-3-----3-------3-------3-------|
|---------------------------------|
|---------------------------------|
|
| E   S S S S S S E   S S S S S S
|-----6-6-6---6-------6-6-6---6---|
|---------------------------------|
|---------------------------------|
|---------------------------------|
|---------------------------------|
|---------------------------------|


  S S E   S S E   S S E   S S E     S S E   S S E   S S S S S S E
|-0-0-----0-------0-0-----0-------|---------------------------------|
|-1-1-----1-------1-1-----1-------|-1-1-----1-------1-1-----1-------|
|-0-0-----0-------0-0-----0-------|-2-2-----2-------2-2-----2-------|
|---------------------------------|-3-3-----3-------3---3---3-------|
|---------------------------------|---------------------------------|
|---------------------------------|---------------------------------|
|
| E   S S S S S S E   S S S S S S   E   S S S S S S E   S S S S S S
|-----6-6-6---6-------6-6-6---6---|-----6-6-6---6-------6-6-6---6---|
|---------------------------------|---------------------------------|
|---------------------------------|---------------------------------|
|---------------------------------|---------------------------------|
|---------------------------------|---------------------------------|
|---------------------------------|---------------------------------|


  S S E   S S E   S S E   S S E     S S E   S S E   S S S S S S E
|-0-0-----0-------0-0-----0-------|---------------------------------|
|-1-1-----1-------1-1-----1-------|-1-1-----1-------1-1-----1-------|
|-0-0-----0-------0-0-----0-------|-2-2-----2-------2-2-----2-------|
|---------------------------------|-3-3-----3-------3---3---3-------|
|---------------------------------|---------------------------------|
|---------------------------------|---------------------------------|
|
| E   S S S S S S E   S S S S S S   E   S S S S S S E   S S S S S S
|-----6-6-6---6-------6-6-6---6---|-----6-6-6---6-------6-6-6---6---|
|---------------------------------|---------------------------------|
|---------------------------------|---------------------------------|
|---------------------------------|---------------------------------|
|---------------------------------|---------------------------------|
|---------------------------------|---------------------------------|


  S S E   S S E   S S S S S S E
|-0-0-----0-------0---0---0---1---|
|-1-1-----1-------1---1---1---1---|
|-0-0-----0-------0---0---0---2---|
|---------------------------------|
|---------------------------------|
|---------------------------------|
|
| E   S S S S S S E   S S S S S S
|-----6-6-6---6-------6-6-6---6---|
|---------------------------------|
|---------------------------------|
|---------------------------------|
|---------------------------------|
|---------------------------------|


 2/4               4/4
  +E  E   Q         S E  S E  S S S E  S Q
|-(1)-------------|-0----1----1---3----3------|
|-(1)-------------|-1----3----3---5----5------|
|-(2)-------------|-2----3----3---5----5------|
|-----------------|---------------------------|
|-----------------|---------------------------|
|-----------------|---------------------------|
|
|  E  S S S S S S   W
|-----6-6-6---6---|---------------------------|
|-----------------|---------------------------|
|-----------------|---------------------------|
|-----------------|---------------------------|
|-----------------|---------------------------|
|-----------------|---------------------------|


  S E  S E  S S S E  S Q      S E  S E  S S S E  S Q
|-3----1----1---0----0------|-0----1----1---3----3------|
|-5----3----3---1----1------|-1----3----3---5----5------|
|-5----3----3---2----2------|-2----3----3---5----5------|
|---------------------------|---------------------------|
|---------------------------|---------------------------|
|---------------------------|---------------------------|


  S E  S E  S S H      H     S  S S  S  S S  S S   H     S  S S  S  S S  S S
|-3----1----1--------|---------10------10--------|---------10------10---------|
|-5----2----2--------|------11------11------11---|------11------11------11----|
|-5----3----3--------|------12------12------12---|------12------12------12----|
|--------------------|---------------------------|----------------------------|
|--------------------|---------------------------|----------------------------|
|--------------------|---------------------------|----------------------------|


  H     S  S S  S  S S  S S   H     S  S S  S  S S  S S
|---------10------10--------|---------------------------|
|------11------11------11---|------11-15---11-15---11---|
|------12------12------12---|------12-12---12-12---12---|
|---------------------------|---------------------------|
|---------------------------|---------------------------|
|---------------------------|---------------------------|
|
| W                           W
|---------------------------|---------------------------|
|---------------------------|---------------------------|
|---------------------------|---------------------------|
|---------------------------|---------------------------|
|---------------------------|---------------------------|
|---------------------------|---------------------------|


 2/4             4/4
  Q     E   E     Q     +S  S E   Q     Q
|---------------|-----------------------------|
|-1-----3-------|-5-----(5)-------------3-----|
|-2-----3-------|-5-----(5)-------------3-----|
|-3-----3-------|-5-----(5)-------------3-----|
|---------------|-----------------------------|
|---------------|-----------------------------|
|
| S E S S S S S   S E S  E    S S S E S E S S
|---------------|-----------------------------|
|-------3---3---|-----3-------3-------3---3---|
|-----5---------|-----------------------------|
|-5-------------|-----------------------------|
|---------------|-3---------------3-----------|
|---------------|-----------------------------|


  Q     +S  S E   Q     E E
|-----------------------------|
|-1-----(1)-------------3-----|
|-2-----(2)-------------3-----|
|-3-----(3)-------------3-----|
|-----------------------------|
|-----------------------------|
|
| S E S  E    S S S E S E S S
|-----------------------------|
|-----3-------3-------3---3---|
|-----------------------------|
|-----------------------------|
|-3---------------3-----------|
|-----------------------------|


  Q     +S  S E   Q     Q       Q     +S  S E   Q     E E
|-----------------------------|-----------------------------|
|-5-----(5)-------------3-----|-1-----(1)-------------3-----|
|-5-----(5)-------------3-----|-2-----(2)-------------3-----|
|-5-----(5)-------------3-----|-3-----(3)-------------3-----|
|-----------------------------|-----------------------------|
|-----------------------------|-----------------------------|
|
| S E S  E    S S S E S E S S   S E S  E    S S S E S E S S
|-----------------------------|-----------------------------|
|-----3-------3-------3---3---|-----3-------3-------3---3---|
|-----------------------------|-----------------------------|
|-----------------------------|-----------------------------|
|-3---------------3-----------|-3---------------3-----------|
|-----------------------------|-----------------------------|


  Q.       E   Q     Q       H           Q     E E
|--------------------------|-------------------------|
|-5------------------3-----|-1-----------------3-----|
|-5------------------3-----|-2-----------------3-----|
|-5------------------3-----|-3-----------------3-----|
|--------------------------|-------------------------|
|--------------------------|-------------------------|
|
| S  E S E S S S E S E S S   S E S E S S S E S E S S
|--------------------------|-------------------------|
|------3---3-------3---3---|-----3---3-------3---3---|
|--------------------------|-------------------------|
|--------------------------|-------------------------|
|-3------------3-----------|-3-----------3-----------|
|--------------------------|-------------------------|


  Q.       E   Q     Q
|---------------------------|
|-5------------------3------|
|-5------------------3------|
|-5------------------3------|
|---------------------------|
|---------------------------|
|
| S  E S E S S S E S E S S
|---------------------------|
|------3---3-------3---3----|
|---------------------------|
|---------------------------|
|-3------------3------------|
|---------------------------|


  Q     +S  S E   H             E S S E   S S E S S E   S S
|-----------------------------|---0-0-----0-----0-0-----0---|
|-1-----(1)-------------------|---1-1-----1-----1-1-----1---|
|-2-----(2)-------------------|---0-0-----0-----0-0-----0---|
|-3-----(3)-------------------|-----------------------------|
|-----------------------------|-----------------------------|
|-----------------------------|-----------------------------|
|
| S E S  E    S S S E S E S S   E S S S S S S E S S S S S S
|-----------------------------|---6-6-6---6-----6-6-6---6---|
|-----3-------3-------3---3---|-----------------------------|
|-----------------------------|-----------------------------|
|-----------------------------|-----------------------------|
|-3---------------3-----------|-----------------------------|
|-----------------------------|-----------------------------|


  E S S E   S S E S S E   S S   E S S E   S S E S S E   S S
|-----------------------------|---0-0-----0-----0-0-----0---|
|---1-1-----1-----1-1-----1---|---1-1-----1-----1-1-----1---|
|---2-2-----2-----2-2-----2---|---0-0-----0-----0-0-----0---|
|---3-3-----3-----3-------3---|-----------------------------|
|-----------------------------|-----------------------------|
|-----------------------------|-----------------------------|
|
| E S S S S S S E S S S S S S   E S S S S S S E S S S S S S
|---6-6-6---6-----6-6-6---6---|---6-6-6---6-----6-6-6---6---|
|-----------------------------|-----------------------------|
|-----------------------------|-----------------------------|
|-----------------------------|-----------------------------|
|-----------------------------|-----------------------------|
|-----------------------------|-----------------------------|


  E S S E   S S E S S E   S S   E S S E   S S E S S E   S S
|-----------------------------|---0-0-----0-----0-0-----0---|
|---1-1-----1-----1-1-----1---|---1-1-----1-----1-1-----1---|
|---2-2-----2-----2-2-----2---|---0-0-----0-----0-0-----0---|
|---3-3-----3-----3-3-----3---|-----------------------------|
|-----------------------------|-----------------------------|
|-----------------------------|-----------------------------|
|
| E S S S S S S E S S S S S S   E S S S S S S E S S S S S S
|---6-6-6---6-----6-6-6---6---|---6-6-6---6-----6-6-6---6---|
|-----------------------------|-----------------------------|
|-----------------------------|-----------------------------|
|-----------------------------|-----------------------------|
|-----------------------------|-----------------------------|
|-----------------------------|-----------------------------|


                                                             2/4
  E S S E   S S E S S E   S S   E S S E   S S E S S E   S S   Q     Q
|-----------------------------|---0-0-----0-----0-0-----0---|----------------|
|---1-1-----1-----1-1-----1---|---1-1-----1-----1-1-----1---|-1--------------|
|---2-2-----2-----2-2-----2---|---0-0-----0-----0-0-----0---|-2--------------|
|---3-3-----3-----3-3-----3---|-----------------------------|----------------|
|-----------------------------|-----------------------------|----------------|
|-----------------------------|-----------------------------|----------------|
|
| E S S S S S S E S S S S S S   E S S S S S S E S S S S S S   E S S S S S S
|---6-6-6---6-----6-6-6---6---|---6-6-6---6-----6-6-6---6---|---6-6-6---6----|
|-----------------------------|-----------------------------|----------------|
|-----------------------------|-----------------------------|----------------|
|-----------------------------|-----------------------------|----------------|
|-----------------------------|-----------------------------|----------------|
|-----------------------------|-----------------------------|----------------|


 2/4             4/4
  Gtr I
  Q     E   E     E S S E   S S E S S E   S S   E S S E   S S E S S E   S S
|---------------|---0-0-----0-----0-0-----0---|-----------------------------|
|-1-----3-------|---1-1-----1-----1-1-----1---|---1-1-----1-----1-1-----1---|
|-2-----3-------|---0-0-----0-----0-0-----0---|---2-2-----2-----2-2-----2---|
|-3-----3-------|-----------------------------|---3-3-----3-----3-------3---|
|---------------|-----------------------------|-----------------------------|
|---------------|-----------------------------|-----------------------------|
|
| Gtr II
| S E S S S S S   E S S S S S S E S S S S S S   E S S S S S S E S S S S S S
|---------------|---6-6-6---6-----6-6-6---6---|---6-6-6---6-----6-6-6---6---|
|-------3---3---|-----------------------------|-----------------------------|
|-----5---------|-----------------------------|-----------------------------|
|-5-------------|-----------------------------|-----------------------------|
|---------------|-----------------------------|-----------------------------|
|---------------|-----------------------------|-----------------------------|


  E S S E   S S E S S E   S S   E S S E   S S E S S E   S S
|---0-0-----0-----0-0-----0---|-----------------------------|
|---1-1-----1-----1-1-----1---|---1-1-----1-----1-1-----1---|
|---0-0-----0-----0-0-----0---|---2-2-----2-----2-2-----2---|
|-----------------------------|---3-3-----3-----3-3-----3---|
|-----------------------------|-----------------------------|
|-----------------------------|-----------------------------|
|
| E S S S S S S E S S S S S S   E S S S S S S E S S S S S S
|---6-6-6---6-----6-6-6---6---|---6-6-6---6-----6-6-6---6---|
|-----------------------------|-----------------------------|
|-----------------------------|-----------------------------|
|-----------------------------|-----------------------------|
|-----------------------------|-----------------------------|
|-----------------------------|-----------------------------|


  E S S E   S S E S S E   S S   E S S E   S S E S S E   S S
|---0-0-----0-----0-0-----0---|-----------------------------|
|---1-1-----1-----1-1-----1---|---1-1-----1-----1-1-----1---|
|---0-0-----0-----0-0-----0---|---2-2-----2-----2-2-----2---|
|-----------------------------|---3-3-----3-----3-3-----3---|
|-----------------------------|-----------------------------|
|-----------------------------|-----------------------------|
|
| E S S S S S S E S S S S S S   E S S S S S S E S S S S S S
|---6-6-6---6-----6-6-6---6---|---6-6-6---6-----6-6-6---6---|
|-----------------------------|-----------------------------|
|-----------------------------|-----------------------------|
|-----------------------------|-----------------------------|
|-----------------------------|-----------------------------|
|-----------------------------|-----------------------------|


  E S S E   S S E S S E   S S   H.                   Q
|---0-0-----0-----0-0-----0---|-1----------------------------|
|---1-1-----1-----1-1-----1---|-1----------------------------|
|---0-0-----0-----0-0-----0---|-2----------------------------|
|-----------------------------|------------------------------|
|-----------------------------|------------------------------|
|-----------------------------|------------------------------|
|
| E S S S S S S E S S S S S S   E  S S S S S S E S S S S S S
|---6-6-6---6-----6-6-6---6---|----6-6-6---6-----6-6-6---6---|
|-----------------------------|------------------------------|
|-----------------------------|------------------------------|
|-----------------------------|------------------------------|
|-----------------------------|------------------------------|
|-----------------------------|------------------------------|


  E S S E   S S E S S E   S S   E S S E   S S E S S E   S S
|---0-0-----0-----0-0-----0---|-----------------------------|
|---1-1-----1-----1-1-----1---|---1-1-----1-----1-1-----1---|
|---0-0-----0-----0-0-----0---|---2-2-----2-----2-2-----2---|
|-----------------------------|---3-3-----3-----3-------3---|
|-----------------------------|-----------------------------|
|-----------------------------|-----------------------------|
|
| E S S S S S S E S S S S S S   E S S S S S S E S S S S S S
|---6-6-6---6-----6-6-6---6---|---6-6-6---6-----6-6-6---6---|
|-----------------------------|-----------------------------|
|-----------------------------|-----------------------------|
|-----------------------------|-----------------------------|
|-----------------------------|-----------------------------|
|-----------------------------|-----------------------------|


  E S S E   S S E S S E   S S   E S S E   S S E S S E   S S
|---0-0-----0-----0-0-----0---|-----------------------------|
|---1-1-----1-----1-1-----1---|---1-1-----1-----1-1-----1---|
|---0-0-----0-----0-0-----0---|---2-2-----2-----2-2-----2---|
|-----------------------------|---3-3-----3-----3-3-----3---|
|-----------------------------|-----------------------------|
|-----------------------------|-----------------------------|
|
| E S S S S S S E S S S S S S   E S S S S S S E S S S S S S
|---6-6-6---6-----6-6-6---6---|---6-6-6---6-----6-6-6---6---|
|-----------------------------|-----------------------------|
|-----------------------------|-----------------------------|
|-----------------------------|-----------------------------|
|-----------------------------|-----------------------------|
|-----------------------------|-----------------------------|


  E S S E   S S E S S E   S S   E S S E   S S E S S E   S S
|---0-0-----0-----0-0-----0---|-----------------------------|
|---1-1-----1-----1-1-----1---|---1-1-----1-----1-1-----1---|
|---0-0-----0-----0-0-----0---|---2-2-----2-----2-2-----2---|
|-----------------------------|---3-3-----3-----3-3-----3---|
|-----------------------------|-----------------------------|
|-----------------------------|-----------------------------|
|
| E S S S S S S E S S S S S S   E S S S S S S E S S S S S S
|---6-6-6---6-----6-6-6---6---|---6-6-6---6-----6-6-6---6---|
|-----------------------------|-----------------------------|
|-----------------------------|-----------------------------|
|-----------------------------|-----------------------------|
|-----------------------------|-----------------------------|
|-----------------------------|-----------------------------|


  E S S E   S S E S S E   S S   Q.         E   H
|---0-0-----0-----0-0-----0---|-1-------------------*|
|---1-1-----1-----1-1-----1---|-1-------------------*|
|---0-0-----0-----0-0-----0---|-2-------------------*|
|-----------------------------|---------------------*|
|-----------------------------|---------------------*|
|-----------------------------|---------------------*|
|
| E S S S S S S E S S S S S S   E  S S S S S S H
|---6-6-6---6-----6-6-6---6---|----6-6-6---6--------*|
|-----------------------------|---------------------*|
|-----------------------------|---------------------*|
|-----------------------------|---------------------*|
|-----------------------------|---------------------*|
|-----------------------------|---------------------*|

FIN!!!
- BUENO AQUI ABAJO ESTA EL SIGNIFICADO DE LAS LETRAS Y LOS SIGNOS...
- ESPERO QUE LES HAYA AGRADADO Y SOBRETODO QUE LE HAYAN ENTENDIDO...
- POR SI ALGUNA RAZON NO LE ENTIENDEN PUES HECHENME UN MAIL A: sNaKePiTs@
- SI QUIEREN ALGUNA PETICION PUES TAMBIEN HECHENME UN MAIL...
- ESTA CANCION Y OTRAS LAS TENGO EN ARCHIVOS POWERTAB, POR SI ALGUIEN LA QUIERE...
  PUES HECHENME UN MAIL PIDIENDOLAS...
- LOS VERE EN LA PROXIMA CANCION!!!...


NESTOR SADAO ARECHIGA CERVANTES (sNaKePiTs@


Duration Legend
---------------
W - whole; H - half; Q - quarter; E - 8th; S - 16th; T - 32nd; X - 64th; a - acciaccatura
+ - note tied to previous; . - note dotted; .. - note double dotted
Uncapitalized letters represent notes that are staccato (1/2 duration)
Irregular groupings are notated above the duration line
Duration letters will always appear directly above the note/fret number it represents the
duration for.  Duration letters with no fret number below them represent rests.  Multi-
bar rests are notated in the form Wxn, where n is the number of bars to rest for.  Low
melody durations appear below the staff

Tablature Legend
----------------
 h   - hammer-on
 p   - pull-off
 B   - bend
 pb  - pre-bend
 r   - bend release (if no number after the r, then release immediately)
 /\  - slide into or out of (from/to 'nowhere')
 s   - legato slide
 S   - shift slide
<n>  - natural harmonic
[n]  - artificial harmonic
n(n) - tapped harmonic
 ~   - vibrato
 tr  - trill
 T   - tap
 TP  - trem. picking
 PM  - palm muting
\n/  - tremolo bar dip; n = amount to dip
 \n  - tremolo bar down
 n/  - tremolo bar up
/n\  - tremolo bar inverted dip
 =   - hold bend; also acts as connecting device for hammers/pulls
 <>  - volume swell [louder/softer]
 x   - on rhythm slash represents muted slash
 o   - on rhythm slash represents single note slash

Misc Legend
-----------
 |  - bar
||  - double bar
||o - repeat start
o|| - repeat end
*|  - double bar [ending]
 :  - bar (freetime)
 $  - Segno
 &  - Coda
Tempo markers - <E/E./Q/Q./H/H.> = BPM(8/16=s8/s16), where s8 = swing 8ths, s16 = swing 16ths

            
            
Suggest correction
Creating personal tab
Creating personal tab
You can edit any tab online and save it as your Personal.

You can edit, replace or remove any tab part or add personal notes – all changes will be seen only by you.

Personal tabs can be accessed anytime from any device, even offline.
Learn more »
Give kudos to tab author, rate the tab!
1 2 3 4 5
comments
print report bad tab
guest
Wanna post a correction for this tab? Suggest correction