Oops, an error
Loading. Please wait.

Y Yo Sigo Aquí bass

22 views 1 this week
no commentswrite comment
1 2 3 4 5
3 more votes to show rating
add to favorites
×
Save as Personal and add changes to this tab that will be seen only by you. Learn more ›
×
You can save this tab as Personal to edit and correct it or add notes. All changes will be seen only by you. Learn more »
launch autoscroll
font size
0
reset
guitar tuner
edit
Autoscroll
slow
fast
+/-
esc
set tempo
stop
Transcrita por: Nestor Sadao Arechiga Cervantes

Esta cancion se toca con un bajo de 6 cuerdas...
...y la afinacion es: (B E A D G B)

  Q=125
 4/4

  W          W          W          W
|----------|----------|----------|------|
|----------|----------|----------|------|
|----------|----------|----------|------|
|----------|----------|----------|------|
|----------|----------|----------|------|
|----------|----------|----------|------|


  W          E S S +S  S E E S S +S  S E   E S S +S  S E E S S +S  S E
|----------|-----------------------------|------------------------------|
|----------|-----3-(3)---3---------------|-----3-(3)---3----------------|
|----------|-3---------------------------|---------------3---3-(3)------|
|----------|---------------3---3-(3)-----|-3----------------------------|
|----------|---------------------------3-|------------------------------|
|----------|-----------------------------|---------------------------1--|


  E S S +S  S E E S S +S  S E   E S S +S  S E E S S +S  S E
|-----------------------------|-----------------------------|
|-----------------------------|-----3-(3)---3---------------|
|-----------------------------|---------------3---3-(3)-----|
|-----1-(1)---1-3---3-(3)-----|-3---------------------------|
|-1-------------------------3-|-----------------------------|
|-----------------------------|---------------------------1-|


  E S S +S  S E E S S +S  S E
|------------------------------|
|------------------------------|
|------------------------------|
|-----1-(1)---1-3---3-(3)------|
|-1-------------------------3--|
|------------------------------|


  E S S +S  S E E S S +S  S E   E S S +S  S E E S S +S  S E
|-----------------------------|-----------------------------|
|-----3-(3)---3---------------|-----------------------------|
|---------------3---3-(3)-----|-----------------------------|
|-3---------------------------|-----1-(1)---1-3---3-(3)-----|
|-----------------------------|-1-------------------------3-|
|---------------------------1-|-----------------------------|


  E S S +S  S E E S S +S  S E
|------------------------------|
|-----3-(3)---3----------------|
|---------------3---3-(3)------|
|-3----------------------------|
|------------------------------|
|---------------------------1--|


  E S S E S S S E S Q    E S S E S S E S S Q    E S S E S S S E S Q
|----------------------|----------------------|----------------------|
|----------------------|-----3---3------------|-----3---3------------|
|----------------------|-------------3---3----|-3--------------------|
|-----1---1---3---3----|-3--------------------|-------------3---3----|
|-1--------------------|----------------------|----------------------|
|----------------------|----------------------|----------------------|


  E S S E S S E S S Q    E S S E S S S E S Q    E S S E S S E S S Q
|----------------------|----------------------|----------------------|
|-----3---3------------|-----3---3------------|-----3---3------------|
|-------------3---3----|-3--------------------|-------------3---3----|
|-3--------------------|-------------3---3----|-3--------------------|
|----------------------|----------------------|----------------------|
|----------------------|----------------------|----------------------|


  E S S E S S S E S Q    E S S E S S E S S Q    E S S E S S S E S Q
|----------------------|----------------------|----------------------|
|-----3---3------------|-----3---3------------|-----3---3------------|
|-3--------------------|-------------3---3----|-3--------------------|
|-------------3---3----|-3--------------------|-------------3---3----|
|----------------------|----------------------|----------------------|
|----------------------|----------------------|----------------------|


  E S S E S S E S S Q    E S S E S S S E S Q    E S S E S S E S S Q
|----------------------|----------------------|----------------------|
|-----3---3------------|-----3---3------------|-----3---3------------|
|-------------3---3----|-3--------------------|-------------3---3----|
|-3--------------------|-------------3---3----|-3--------------------|
|----------------------|----------------------|----------------------|
|----------------------|----------------------|----------------------|


  E S S E S S S E S Q    E S S E S S E S S Q    E S S E S S S E S Q
|----------------------|----------------------|----------------------|
|-----3---3------------|-----3---3------------|-----3---3------------|
|-3--------------------|-------------3---3----|-3--------------------|
|-------------3---3----|-3--------------------|-------------3---3----|
|----------------------|----------------------|----------------------|
|----------------------|----------------------|----------------------|


                        2/4       4/4
  E S S E S S E S S Q    E E E E   Q  E E Q  E E   Q  Q  Q  Q
|----------------------|---------|---------------|--------------|
|-----3---3------------|-----3---|---------------|----------3---|
|-------------3---3----|-3-------|---------------|-3-----3------|
|-3--------------------|---------|-3------3----3-|----3---------|
|----------------------|---------|----3------3---|--------------|
|----------------------|---------|---------------|--------------|


  Q  Q  Q  S S E   Q  Q  Q  Q    Q  Q  Q  E E   Q  Q  Q  Q
|----------------|-------------|--------------|--------------|
|----------------|----------3--|--------------|----------3---|
|----------------|-3-----3-----|--------------|-3-----3------|
|-3-----3------3-|----3--------|-3-----3----3-|----3---------|
|----3-----3-----|-------------|----3-----3---|--------------|
|----------------|-------------|--------------|--------------|


  Q  Q  Q  Q    E E E S S E S S S S  S S    S  S S S S S S S S S E Q
|-------------|--------------------------|----------------------------|
|-------------|-------5------------------|----------------------------|
|-------------|-3------------------------|-10-10-------------------8--|
|-3-----3-----|---3-5-----8---8-8---12---|----------------------------|
|----3-----3--|--------------------------|-------------------8--------|
|-------------|--------------------------|---------8-8---8---8--------|


  S S S S S S E E E S S E   S S S S S S S S S S E Q    S S S S S S E E E S S E
|-------------------------|--------------------------|-------------------------|
|-------5-5---5-----3-----|-----------------------3--|-------------------3-----|
|---------------3---------|--------------------------|-3-3-----------3---------|
|-------------------------|-3-3-------------3--------|-------3-3---3-----------|
|-------------------------|-------3-3---3---3--------|-------------------------|
|-6-6---------------------|--------------------------|-------------------------|


  S S S S S S S S S S E Q    S S S S S S E E E S S E
|--------------------------|-------------------------|
|-----------------------3--|-------------------3-----|
|--------------------------|-3-3-----------3---------|
|-3-3-------------3--------|-------3-3---3-----------|
|-------3-3---3---3--------|-------------------------|
|--------------------------|-------------------------|


                             2/4               4/4
  S S S S S S S S E E S S E   S S S S S S S S   E S S +S  S E E S S +S  S E
|---------------------------|-----------------|-----------------------------|
|---------------------3-----|-----------------|-----3-(3)---3---------------|
|---------------------------|-3-3---------3---|-3---------------------------|
|-3-3-------------3---------|-------3-3-------|---------------3---3-(3)-----|
|-------3-3---3-------------|-----------------|---------------------------3-|
|---------------------------|-----------------|-----------------------------|


  E S S +S  S E E S S +S  S E   E S S +S  S E E S S +S  S E
|-----------------------------|-----------------------------|
|-----3-(3)---3---------------|-----------------------------|
|---------------3---3-(3)-----|-----------------------------|
|-3---------------------------|-----1-(1)---1-3---3-(3)-----|
|-----------------------------|-1-------------------------3-|
|---------------------------1-|-----------------------------|


  E S S +S  S E E S S +S  S E
|------------------------------|
|-----3-(3)---3----------------|
|---------------3---3-(3)------|
|-3----------------------------|
|------------------------------|
|---------------------------1--|


  E S S +S  S E E S S +S  S E   E S S +S  S E E S S +S  S E
|-----------------------------|-----------------------------|
|-----------------------------|-----3-(3)---3---------------|
|-----------------------------|---------------3---3-(3)-----|
|-----1-(1)---1-3---3-(3)-----|-3---------------------------|
|-1-------------------------3-|-----------------------------|
|-----------------------------|---------------------------1-|


  E S S +S  S E E S S +S  S E
|------------------------------|
|------------------------------|
|------------------------------|
|-----1-(1)---1-3---3-(3)------|
|-1-------------------------3--|
|------------------------------|


  E S S +S  S E E S S +S  S E   E S S E S S S E S Q    E S S E S S E S S Q
|-----------------------------|----------------------|-----------------------|
|-----3-(3)---3---------------|----------------------|-----3---3-------------|
|---------------3---3-(3)-----|----------------------|-------------3---3-----|
|-3---------------------------|-----1---1---3---3----|-3---------------------|
|-----------------------------|-1--------------------|-----------------------|
|---------------------------1-|----------------------|-----------------------|


  E S S E S S S E S Q    E S S E S S E S S Q    E S S E S S S E S Q
|----------------------|----------------------|----------------------|
|-----3---3------------|-----3---3------------|-----3---3------------|
|-3--------------------|-------------3---3----|-3--------------------|
|-------------3---3----|-3--------------------|-------------3---3----|
|----------------------|----------------------|----------------------|
|----------------------|----------------------|----------------------|


  E S S E S S E S S Q    E S S E S S S E S Q    E S S E S S E S S Q
|----------------------|----------------------|----------------------|
|-----3---3------------|-----3---3------------|-----3---3------------|
|-------------3---3----|-3--------------------|-------------3---3----|
|-3--------------------|-------------3---3----|-3--------------------|
|----------------------|----------------------|----------------------|
|----------------------|----------------------|----------------------|


  E S S E S S S E S Q    E S S E S S E S S Q    E S S E S S S E S Q
|----------------------|----------------------|----------------------|
|-----3---3------------|-----3---3------------|-----3---3------------|
|-3--------------------|-------------3---3----|-3--------------------|
|-------------3---3----|-3--------------------|-------------3---3----|
|----------------------|----------------------|----------------------|
|----------------------|----------------------|----------------------|


  E S S E S S E S S Q    E S S E S S S E S Q    E S S E S S E S S Q
|----------------------|----------------------|----------------------|
|-----3---3------------|-----3---3------------|-----3---3------------|
|-------------3---3----|-3--------------------|-------------3---3----|
|-3--------------------|-------------3---3----|-3--------------------|
|----------------------|----------------------|----------------------|
|----------------------|----------------------|----------------------|


                                               2/4       4/4
  E S S E S S S E S Q    E S S E S S E S S Q    E E E E   Q  E E Q  E E
|----------------------|----------------------|---------|---------------|
|-----3---3------------|-----3---3------------|-----3---|---------------|
|-3--------------------|-------------3---3----|-3-------|---------------|
|-------------3---3----|-3--------------------|---------|-3------3----3-|
|----------------------|----------------------|---------|----3------3---|
|----------------------|----------------------|---------|---------------|


  Q  Q  Q  Q    Q  Q  Q  S S E   Q  Q  Q  Q    Q  Q  Q  E E
|-------------|----------------|-------------|---------------|
|----------3--|----------------|----------3--|---------------|
|-3-----3-----|----------------|-3-----3-----|---------------|
|----3--------|-3-----3------3-|----3--------|-3-----3----3--|
|-------------|----3-----3-----|-------------|----3-----3----|
|-------------|----------------|-------------|---------------|


                             2/4         4/4
  Q  Q  Q  Q    Q  Q  Q  Q    E E E S S   W          W
|-------------|-------------|-----------|----------|------|
|----------3--|-------------|-------5---|----------|------|
|-3-----3-----|-------------|-3---------|----------|------|
|----3--------|-3-----3-----|---3-5-----|----------|------|
|-------------|----3-----3--|-----------|----------|------|
|-------------|-------------|-----------|----------|------|


  W          W          S S E E E Q  E E   S S E E E Q  E E
|----------|----------|------------------|------------------|
|----------|----------|-------3----------|-------3----------|
|----------|----------|-3---3------------|------------------|
|----------|----------|----------------3-|----------------3-|
|----------|----------|------------------|-3---3------------|
|----------|----------|-6----------------|------------------|


                                           2/4
  S S S S E E Q  E S S   S S S S E E H      Q  Q
|----------------------|------------------|-------|
|---------3------------|---------3--------|----3--|
|-3---3----------------|------------------|-3-----|
|------------------3---|------------------|-------|
|----------------------|-3---3------------|-------|
|----------------------|------------------|-------|


 4/4
  S S S S S S S S S S E Q    S S S S S S E E E S S E
|--------------------------|-------------------------|
|-----------------------3--|-------------------3-----|
|--------------------------|-3-3-----------3---------|
|-3-3-------------3--------|-------3-3---3-----------|
|-------3-3---3---3--------|-------------------------|
|--------------------------|-------------------------|


  S S S S S S S S S S E Q    S S S S S S E E E S S E
|--------------------------|-------------------------|
|-----------------------3--|-------------------3-----|
|--------------------------|-3-3-----------3---------|
|-3-3-------------3--------|-------3-3---3-----------|
|-------3-3---3---3--------|-------------------------|
|--------------------------|-------------------------|


  S S S S S S S S S S E Q    S S S S S S E E E S S E
|--------------------------|-------------------------|
|-----------------------3--|-------------------3-----|
|--------------------------|-3-3-----------3---------|
|-3-3-------------3--------|-------3-3---3-----------|
|-------3-3---3---3--------|-------------------------|
|--------------------------|-------------------------|


  S S S S S S S S S S E Q    S S S S S S E E E S S E   Q  E E Q  E E
|--------------------------|-------------------------|---------------|
|-----------------------3--|-------------------3-----|---------------|
|--------------------------|-3-3-----------3---------|---------------|
|-3-3-------------3--------|-------3-3---3-----------|-3------3----3-|
|-------3-3---3---3--------|-------------------------|----3------3---|
|--------------------------|-------------------------|---------------|


  Q  Q  Q  Q    Q  Q  Q  S S E   Q  Q  Q  Q    Q  Q  Q  E E
|-------------|----------------|-------------|---------------|
|----------3--|----------------|----------3--|---------------|
|-3-----3-----|----------------|-3-----3-----|---------------|
|----3--------|-3-----3------3-|----3--------|-3-----3----3--|
|-------------|----3-----3-----|-------------|----3-----3----|
|-------------|----------------|-------------|---------------|


                             2/4         4/4
  Q  Q  Q  Q    Q  Q  Q  Q    E E E S S   W          W
|-------------|-------------|-----------|----------|------|
|----------3--|-------------|-------5---|----------|------|
|-3-----3-----|-------------|-3---------|----------|------|
|----3--------|-3-----3-----|---3-5-----|----------|------|
|-------------|----3-----3--|-----------|----------|------|
|-------------|-------------|-----------|----------|------|


  W          W          W          W
|----------|----------|----------|------|
|----------|----------|----------|------|
|----------|----------|----------|------|
|----------|----------|----------|------|
|----------|----------|----------|------|
|----------|----------|----------|------|


                             2/4     4/4
  W          H    S S E E E   Q  Q    Q  E E Q  E E   Q  Q  Q  Q
|----------|----------------|-------|---------------|-------------|
|----------|--------------5-|----3--|---------------|----------3--|
|----------|------3---------|-3-----|---------------|-3-----3-----|
|----------|----------3-5---|-------|-3------3----3-|----3--------|
|----------|----------------|-------|----3------3---|-------------|
|----------|----------------|-------|---------------|-------------|


  Q  Q  Q  S S E   Q  Q  Q  Q    Q  Q  Q  E E   Q  Q  Q  Q
|----------------|-------------|--------------|--------------|
|----------------|----------3--|--------------|----------3---|
|----------------|-3-----3-----|--------------|-3-----3------|
|-3-----3------3-|----3--------|-3-----3----3-|----3---------|
|----3-----3-----|-------------|----3-----3---|--------------|
|----------------|-------------|--------------|--------------|


  Q  Q  Q  Q    E E E S S E S S S S  S S    Q  E E Q  E E   Q  Q  Q  Q
|-------------|--------------------------|----------------|-------------|
|-------------|-------5------------------|----------------|----5-----3--|
|-------------|-3------------------------|-10-------------|-------3-----|
|-3-----3-----|---3-5-----8---8-8---12---|----------------|-------------|
|----3-----3--|--------------------------|---------8----8-|-------------|
|-------------|--------------------------|-----8------8---|-6-----------|


  Q  Q  Q  S S E   Q  Q  Q  Q    Q  Q  Q  E E   Q  Q  Q  Q
|----------------|-------------|--------------|--------------|
|----------------|----------3--|--------------|----------3---|
|----------------|-3-----3-----|--------------|-3-----3------|
|-3-----3------3-|----3--------|-3-----3----3-|----3---------|
|----3-----3-----|-------------|----3-----3---|--------------|
|----------------|-------------|--------------|--------------|


  Q  Q  Q  Q    E E E S S H
|-------------|----------------*|
|-------------|-------5--------*|
|-------------|-3--------------*|
|-3-----3-----|---3-5----------*|
|----3-----3--|----------------*|
|-------------|----------------*|

FIN!!!
- BUENO AQUI ABAJO ESTA EL SIGNIFICADO DE LAS LETRAS Y LOS SIGNOS...
- ESPERO QUE LES HAYA AGRADADO Y SOBRETODO QUE LE HAYAN ENTENDIDO...
- POR SI ALGUNA RAZON NO LE ENTIENDEN PUES HECHENME UN MAIL A: sNaKePiTs@
- SI QUIEREN ALGUNA PETICION PUES TAMBIEN HECHENME UN MAIL...
- ESTA CANCION Y OTRAS LAS TENGO EN ARCHIVOS POWERTAB, POR SI ALGUIEN LA QUIERE...
  PUES HECHENME UN MAIL PIDIENDOLAS...
- LOS VERE EN LA PROXIMA CANCION!!!...


Duration Legend
---------------
W - whole; H - half; Q - quarter; E - 8th; S - 16th; T - 32nd; X - 64th; a - acciaccatura
+ - note tied to previous; . - note dotted; .. - note double dotted
Uncapitalized letters represent notes that are staccato (1/2 duration)
Irregular groupings are notated above the duration line
Duration letters will always appear directly above the note/fret number it represents the
duration for.  Duration letters with no fret number below them represent rests.  Multi-
bar rests are notated in the form Wxn, where n is the number of bars to rest for.  Low
melody durations appear below the staff

Misc Legend
-----------
 |  - bar
||  - double bar
||o - repeat start
o|| - repeat end
*|  - double bar (ending)
 :  - bar (freetime)
 $  - Segno
 &  - Coda
Tempo markers - <E/E./Q/Q./H/H.> = BPM(8/16=s8/s16), where s8 = swing 8ths, s16 = swing 16ths

            
            
Suggest correction
Creating personal tab
Creating personal tab
You can edit any tab online and save it as your Personal.

You can edit, replace or remove any tab part or add personal notes – all changes will be seen only by you.

Personal tabs can be accessed anytime from any device, even offline.
Learn more »
Give kudos to tab author, rate the tab!
1 2 3 4 5
comments
print report bad tab
guest
Wanna post a correction for this tab? Suggest correction