Oops, an error
Loading. Please wait.

Entre Tu Distancia Y Yo tab

2 views 1 this week
no commentswrite comment
1 2 3 4 5
3 more votes to show rating
add to favorites
×
Save as Personal and add changes to this tab that will be seen only by you. Learn more ›
×
You can save this tab as Personal to edit and correct it or add notes. All changes will be seen only by you. Learn more »
launch autoscroll
font size
0
reset
how to read this tab
guitar tuner
edit
Autoscroll
slow
fast
+/-
esc
set tempo
stop
Intro:                                                 

        SOL           RE                    REm            
                    
E  -------------|------------------|-------------------| 
B  ----7-7------|--------7/8--7-7--|------7-7/5---5--3-|
G  --5------5h7-|-4---4------------|--3----------------|
D  -------------|------------------|-------------------|
A  -------------|------------------|-------------------|
E  -------------|------------------|-------------------|

 
      DO                DOm               (SOL   RE/FA#  MIm
 E ------------|-------------------|-------------------------------|
 B ----8-8-----|--8--8/6----6/4--4-|-----------5--3--5-------------|
 G-5-----------|-------------------|----0h2--4-------------4p2--0--|
 D-------------|-------------------|--------------------------4----|
 A-------------|-------------------|-------------------------------|
 E-------------|-------------------|-------------------------------|

    LA                 RE7
 E---------------|------7----10----------------------| 
 B --------------|----8---9-----------8h9--8h9--9----|
 G-2--4--2--4----|--7--7-----------------------------|
 D---------------|-----------------------------------|
 A---------------|-----------------------------------|
 E---------------|-----------------------------------|

  SOL             RE                       REm                       DO 
  No traté de evadir mi situación, pero aquí en mi corazón hay un vacío
   
  DOm            (SOL      RE/FA#  MIm)    LA                       RE7       
  no traté de pintar de gris el sol y frente al televisor aún te recuerdo.

  SOL           RE                      REm                      DO 
  No fingí el sentir llorar por tí y quizás hoy para mí sea un panfleto

  DOm          (SOL  RE/FA# MIm)          LA                           RE7  
  No escapé del aroma de tu piel y aún se adentra sin querer tu dulce aliento.

  SOL                            RE                        REm                     DO    
  Pero aquí en esta oscura habitación y dando vuelta a la razón el morbo poco a poco me aniquila,
 
      DOm                   (SOL   RE/FA#  MIm)         LA          RE7       DOm
   y aunque muy lejana estás tendré que cruzar el mar para poderme mojar con tu saliva    
 

   Intermadio

     DOm              LA       SOLm
   E---------------------------------------| 
   B----------3--1-------------------------| 
   G---------------3--2--2h3---0-----------| 
   D---------------------------------------| 
   A---------------------------------------| 
   E---------------------------------------| 
 
       DOm            LA       SOLm
   E---------------------------------------| 
   B----------3--1-------------3-----------| 
   G---------------3--2--4-----------------| 
   D---------------------------------------| 
   A---------------------------------------| 
   E---------------------------------------| 

   
   Solo
       


             SOL             RE                  REm      DO                       
   E---------------------------------------|---------------7-8--------------|
   B---------3-3-3---------------3/4-3--3--|----------8-8---------8h10--8-9-|
   G----2h4-------------4p2--2-2-----------|--2h3---------------------------|
   D---------------------------------------|-------5------------------------|
   A---------------------------------------|--------------------------------| 
   E---------------------------------------|--------------------------------|

            DOm                   (SOL  RE/ FA#/ MIm/ LA ) DO       RE7             -          
   E-----------------5------|---------3h5--5/7----5p3--5-----------|------------------| 
   B-----8--8/6----6-----5--|-3h5--3-----------------------5-2----8|-7--8--8/10--10---|
   G------------------------|--------------------------------------|------------------|
   D------------------------|--------------------------------------|------------------| 
   A------------------------|--------------------------------------|------------------|
   E------------------------|--------------------------------------|------------------|


  LA                            MI                        SOLm7                     RE    
  Pero aquí en esta oscura habitación y dando vuelta a la razón el morbo poco a poco me aniquila,
 
      REm                   (LA   MI/SOL#  FA#m)         SIm7         MI7       LA 
  y aunque muy lejana estás tendré que cruzar el mar para poderme mojar con tu saliva
   
      MI      RE            REm     LA9
  con tu saliiiiiva, con tu saliiiiivaaaa.

            
            
Suggest correction
Creating personal tab
Creating personal tab
You can edit any tab online and save it as your Personal.

You can edit, replace or remove any tab part or add personal notes – all changes will be seen only by you.

Personal tabs can be accessed anytime from any device, even offline.
Learn more »
Give kudos to tab author, rate the tab!
1 2 3 4 5
comments
print report bad tab
guest
Wanna post a correction for this tab? Suggest correction