Oops, an error
Loading. Please wait.

Paso A Paso tab

41 views 1 this week
no commentswrite comment
1 2 3 4 5
3 more votes to show rating
add to favorites
×
Save as Personal and add changes to this tab that will be seen only by you. Learn more ›
×
You can save this tab as Personal to edit and correct it or add notes. All changes will be seen only by you. Learn more »
launch autoscroll
font size
0
reset
how to read this tab
guitar tuner
edit
Autoscroll
slow
fast
+/-
esc
set tempo
stop
UNA DE LAS MEJORES CANCIONES DE LA REP. DOM :p,
ESPERO QUE LA DISFRUTEN


INTRO

e|------------------------------
B|------------------------------
G|------------------------------
D|-----2-1-2-1-2/4-1-4-4-2-4-4/5
A|----2-----------2-------------
E|-0-3--------------------------

e|------------------------------------------
B|--------------4-------------4-------------
G|-4-4-4-4-5-3-2-4-4-4-4-5-4-2-4-4-4-5-4-2-4
D|------------------------------------------
A|------------------------------------------
E|------------------------------------------

e|-2-3-0--2-3--2-3-3/5-3-2------------------
B|-----------0------------3-5-0-------------
G|-----------------------------0------------
D|------------------------------------------
A|------------------------------------------
E|------------------------------------------

e|-2-3-0--2-3--2-3-3/5-3-2-0----------------
B|-----------0------------3-----------------
G|------------------------------------------
D|------------------------------------------
A|------------------------------------------
E|------------------------------------------

VERSO 1

     Em Em Em
E||--0--0--0--||
B||--0--0--0--||
G||--0--0--0--||
D||--2--2--2--||
A||--2--2--2--||
E||--0--0--0--||


 Em             Am
Paso a paso caminando en el barrio
       B7
Donde todo es peligro
       Em
Donde nada es pecado
     Em
El vecino del frente
     Am
La vecina del lado
           B7
Borrachos en la esquina
         Em
Mujerzuelas y tragos

(se tocan los mismos acordes de arriba continuamente Em, Am, B7 y Em)

        Am         Em           B7              Em
Y solo vivo analizando el retechero que me ha tocado
        Am         Em           B7              Em
En la mirilla de varios machos que mi pellejo han deseado

Em              Am
Y en este barrio yo viviré
        B7           Em
Y mi pellejo yo cuidaré
             Em           Am
Según los machos soy el jevito
              B7                 Em
Que de este barrio yo soy el riquito
          Am                 Em               Am    B7        Em
Soy la carnada que hay que linchar pà las mujeres poder conquistar

 Em                Am
Lado a lado pregonando mi pena
       B7                 Em
Otro pleito perdido mi barrio que se quema
        Em
Los borrachos, la esquina
        Am
Mi preciada condena
        B7
Ay mi alma que se envenena

        Am         Em           B7              Em
Y solo vivo analizando el retechero que me ha tocado
        Am         Em           B7              Em
En la mirilla de varios machos que mi pellejo han deseado

          Am                 Em               Am    B7        Em
Soy la carnada que hay que linchar pa? las mujeres poder conquistar

Dame alambre

(*INTRO)

Em              Am
Y en este barrio yo viviré
        B7           Em
Y mi pellejo yo cuidaré
             Em           Am
Según los machos soy el jevito
              B7                 Em
Que de este barrio yo soy el riquito
          Am                 Em               Am    B7        Em
Soy la carnada que hay que linchar pà las mujeres poder conquistar


           Em Em Em          G G G       G# G# G#          F F F
mete la mano en el bolsillo saca y abre tu cuchillo y ten cuidao
           Em Em Em          G G G       G# G# G#          F F F
por que a mis oidos en este barrio a mucho guapo lo han matao

       Am    B7   Em
calle luna, calle sol
       Am    B7   Em
calle luna, calle sol

     Em Em Em
E||--0--0--0--||
B||--0--0--0--||
G||--0--0--0--||
D||--2--2--2--||
A||--2--2--2--||
E||--0--0--0--||

SOLO
escala de Em, se puede hacer  tamb en Am es igual.
E||--------------------------||
B||--------------------------||
G||--------------------------||
D||---------------2-1-----1-2||
A||-------0-2-3-1-----2-2----||
E||-0-2-3--------------------|| x4

*(creo que despues sigue en la escala de B ) (La sacare en esta semana ;))

*(Em, Am, B7, Em ) ARPEGIADAS
Paso a paso caminando voy paso a paso,
Paso a paso caminando voy paso a paso,
Paso a paso caminando voy paso a paso,
Paso a paso caminando voy paso a paso,
Paso a paso caminando voy paso a paso,

Ay, pregonando mi pena
Otro pleito perdido mi barrio que se quema se quema

Que tu me quieres dejar y yo no quiero sufrir
contigo me voy, mi sangre aunque me cueste morir

Paso a paso caminando voy paso a paso,
Paso a paso caminando voy paso a paso.

ESTA ES UNA CORRECCION GRACIAS A EL MAPE READY2KILL88@
:D

LES PROMETO EL SOLO COMPLETO ESTA SEMANA :P
PERO EL INICIO DEL SOLO ESTA BIEN.

            
            
Suggest correction
Creating personal tab
Creating personal tab
You can edit any tab online and save it as your Personal.

You can edit, replace or remove any tab part or add personal notes – all changes will be seen only by you.

Personal tabs can be accessed anytime from any device, even offline.
Learn more »
Give kudos to tab author, rate the tab!
1 2 3 4 5
comments
print report bad tab
guest
Wanna post a correction for this tab? Suggest correction