Oops, an error
Loading. Please wait.

Apretaditos tab

20 views 1 this week
no commentswrite comment
1 2 3 4 5
3 more votes to show rating
add to favorites
×
Save as Personal and add changes to this tab that will be seen only by you. Learn more ›
×
You can save this tab as Personal to edit and correct it or add notes. All changes will be seen only by you. Learn more »
launch autoscroll
font size
0
reset
how to read this tab
guitar tuner
edit
Autoscroll
slow
fast
+/-
esc
set tempo
stop
Riff:

e|----5----9----12----10----9----12----10----7----12----10--
B|----------------------------------------------------------


e|--7----14----12----9----17----16----14----14----12--------
B|----------------------------------------------------------


e|--10----10----9---7---9-----------------------------------
B|----------------------------------------------------------


e|----------------9----7----------9----7---------9----7-----
B|----5----10--------------10--------------6----------------


e|------7----5----5-----2----4----5-------------------------
B|-5-----------------------------------5--------------------


e|----------------9----7----5-------------------------------
B|---10----12-----------------------------------------------


Intro: Riff

           A          E             A
Que ganas tengo de tenerte al lado mío
                  D         E
apretaditos, corazón a corazón
            Bm                      D
que por la piel nos corra un escalofrío
       E                          A    (E)
anticipando el paraíso entre tú y yo.


           A          E             A
Que ganas tengo de tenerte al lado mío
           A7          D
apretaditos, pero no estás
                        E
sabes te sobra mi ansiedad
           A            F#m
que se desborda de esperar
         D            E       A
y no me deja ni un minuto en paz.


        C#7                F#m
Y me imagino que estás pensando
         E
en este mismo instante
               A
un poquito en mí
              C#7           F#m
mientras los días pasan de largo
         Bm                       E
y nos perdemos tantas cosas de vivir.


           A          E             A
Que ganas tengo de tenerte al lado mío
   G     F#             Bm
aquí y ahora, pero no estás
           D           E
tal vez escuches mi penar
         A          F#m
multiplicado en el amor
            D               E      A
pues ya no tengo lágrimas para cantar.


Riff y luego repite todo.


* Ritmo de vals.
Suggest correction
Creating personal tab
Creating personal tab
You can edit any tab online and save it as your Personal.

You can edit, replace or remove any tab part or add personal notes – all changes will be seen only by you.

Personal tabs can be accessed anytime from any device, even offline.
Learn more »
Give kudos to tab author, rate the tab!
1 2 3 4 5
comments
print report bad tab
guest
Wanna post a correction for this tab? Suggest correction