Oops, an error
Loading. Please wait.

Ya No Hay Forma De Pedir Perdón chords

version 2
version 2

Whole song

295 views 3 this week
no commentswrite comment
1 2 3 4 5
3 more votes to show rating
add to favorites
×
Save as Personal and add changes to this tab that will be seen only by you. Learn more ›
×
You can save this tab as Personal to edit and correct it or add notes. All changes will be seen only by you. Learn more »
launch autoscroll
font size
0
reset
transpose
0
reset
simplify chords
display chords
guitar tuner
edit
Autoscroll
slow
fast
+/-
esc
set tempo
stop
Strumming
There is no strumming pattern for this song yet. and get +5 IQ
Intro:

e|--10--10--10--10--10--10----6--5--3--------|
B|---8---8---8---8---8---8-------------3/4---|
G|--10--10---9---9---8---8-------------------|
D|-------------------------------------------|
A|-------------------------------------------|
E|-------------------------------------------|
                            D7
e|--7--8---------------2/3--5--5/6--5--------|
B|--------8---------3------------------------|
G|-----------8--7----------------------------|
D|-------------------------------------------|
A|-------------------------------------------|
E|-------------------------------------------|

Gm                           Cm
Cómo voy a lograr que aún me quieras?
F                         Bb
Cómo lograr que quieras escuchar?
Gm                     Cm
Cuando este fuego me desvela
F                           Bb
Pero despierto solo una vez más

Gm                  Cm
Cómo lograr verte de nuevo?
F                        Bb
Cómo he de recobrar tu corazón?
Gm                       Cm
Cómo aceptar que todo ha muerto?
  F                           Bb
Y ya no hay forma de pedir perdón

Cm      D7
Qué mal, qué mal,
Gm                          Cm
Esta absurda y triste historia
            Fm        Bb
Que se pone cada vez peor
Cm      D7
Qué mal, qué mal,
Gm
Por qué ni puedo hablarte?
Cm           D7
Temo que es así,
Cm                 D7          Gm
Que ya no hay forma de pedir perdón

Gm - Cm - F - Bb (x2)

Cm      D7
Qué mal, qué mal,
Gm                         Cm
Esta absurda y triste historia
            Fm        Bb
Que se pone cada vez peor
Cm      D7
Qué mal, qué mal,
Gm
Por qué ni puedo hablarte?
Cm           D7
Temo que es así,
Cm                 D7          Gm
Que ya no hay forma de pedir perdón

Gm - Cm - F - Bb (x2)

Gm                           Cm
Cómo voy a lograr que aún me quieras?
F                         Bb
Cómo lograr que quieras escuchar?
Gm                     Cm
Cuando este fuego me desvela
Cm                    D7
Qué es lo que voy a hacer?
Gm                   Cm
Qué es lo que voy a hacer?
Cm                D7              Gm - Cm - Gm
Si ya no hay forma de... pedir perdón?       Oooh oooh

Al final queda bien hacer esto:

e|-----2/3--5--5/6--5--3--2-2/3--------------|
B|--3----------------------------------------|
G|-------------------------------------------|
D|-------------------------------------------|
A|-------------------------------------------|
E|-------------------------------------------|

Espero que les sirva, el tema es hermoso, tóquenlo bien y también les va a salir bueno.
Cualquier cosa que quieran me escriben, nos vemos.

            
            
Suggest correction
Creating personal tab
Creating personal tab
You can edit any tab online and save it as your Personal.

You can edit, replace or remove any tab part or add personal notes – all changes will be seen only by you.

Personal tabs can be accessed anytime from any device, even offline.
Learn more »
Give kudos to tab author, rate the tab!
1 2 3 4 5
comments
print report bad tab
guest
Wanna post a correction for this tab? Suggest correction