Oops, an error
Loading. Please wait.

Canto A La Madre tab

109 views 1 this week
no commentswrite comment
1 2 3 4 5
3 more votes to show rating
add to favorites
×
Save as Personal and add changes to this tab that will be seen only by you. Learn more ›
×
You can save this tab as Personal to edit and correct it or add notes. All changes will be seen only by you. Learn more »
launch autoscroll
font size
0
reset
how to read this tab
guitar tuner
edit
Autoscroll
slow
fast
+/-
esc
set tempo
stop
INTRO
           A             A7           D       E7     A     F#m   Bm
B-2-3-5-3-2-5--2-3-5-3-2-0----0-2-3-5-7--7-9-10-9-7-5--5-7-9-7-5-3-
G-2-4-6-4-2-6--2-4-6-4-2-0--2-0-2-4-6-7--7-9-11-9-7-6--6-7-9-7-6-4-
D---------------------------2--------------------------------------
      E7    Am
B-3-5-7-5-3-1---------------------
G-4-6-7-6-4-2---------------------
D-----------2---------------------

           Am   E7
yo le canto a la mujer
            Am
de pelo blanco

la q me da su amor
            E7
sin condicion.

a mi madre querida
         Am
yo le canto
                   Dm E7
la cancion que guardaba
                Am  E7
dentro del corazon.


                A
madrecita querida

es tu amor tan inmenso
                   E7
como el amor de dios

por eso madrecita

este dia de tu santo

las estrellas y el cielo
                    A
brillaran en tu honor

el canto de las aves
                     A7
y el murmullo del viento
                 D
se uniran a mi voz
         E7     A
para decirte madre
F#m                   Bm
que tu amor es tan grande
      E7          A
como el amor de dios.
INTERMEDIO
           A             A7           D       E7     A     F#m   Bm
B-2-3-5-3-2-5--2-3-5-3-2-0----0-2-3-5-7--7-9-10-9-7-5--5-7-9-7-5-3-
G-2-4-6-4-2-6--2-4-6-4-2-0--2-0-2-4-6-7--7-9-11-9-7-6--6-7-9-7-6-4-
D---------------------------2--------------------------------------
      E7    Am    E7
B-3-5-7-5-3-1---------------------
G-4-6-7-6-4-2---------------------
D-----------2---------------------


                A
madrecita querida

es tu amor tan inmenso
                   E7
como el amor de dios

por eso madrecita

este dia de tu santo

las estrellas y el cielo
                    A
brillaran en tu honor

el canto de las aves
                     A7
y el murmullo del viento
                 D
se uniran a mi voz
         E7     A
para decirte madre
F#m                   Bm
que tu amor es tan grande
      E7          A
como el amor de dios.

FIN-E7-Am

            
            
Suggest correction
Creating personal tab
Creating personal tab
You can edit any tab online and save it as your Personal.

You can edit, replace or remove any tab part or add personal notes – all changes will be seen only by you.

Personal tabs can be accessed anytime from any device, even offline.
Learn more »
Give kudos to tab author, rate the tab!
1 2 3 4 5
comments
print report bad tab
guest
Wanna post a correction for this tab? Suggest correction