Oops, an error
Loading. Please wait.

Sin Verte tab

34 views 1 this week
no commentswrite comment
1 2 3 4 5
3 more votes to show rating
add to favorites
×
Save as Personal and add changes to this tab that will be seen only by you. Learn more ›
×
You can save this tab as Personal to edit and correct it or add notes. All changes will be seen only by you. Learn more »
launch autoscroll
font size
0
reset
how to read this tab
guitar tuner
edit
Autoscroll
slow
fast
+/-
esc
set tempo
stop
 bueno aqui les dejo el estrivillo de esta cancion de pedro fernandez
 esta para tocarla lam espero q si encuentra un error sepan disculpar


  6--------------------------------------------------------------
  5- ------------------------------------------------------------
  4- ------------------------------------------------------------
  3- ------------------------------------------------------------
  2- ------------------------------------------------------------
  1- -0-1-0-1-0--8-;-0-1-0-1-0--8-;-10-12-10-12-10-12-10-9-10;---
                                                   bajos     LAm
  6------------------------------------------------0-2-3-----------
  5-------------------------------------------------------0--------
  4----------------------------------------------------------------
  3----------------------------------------------------------------
  2----------------------------------------------------------------
  1-8-10-8-10-8-10-8-7-8;-7-8-7-8-7-8-7-8-7-5-;--------------

    LAm                                         SOL#
   Que tristeza saber que te vas yo queriendote asi
                    FA               MI
   esta angustia saberme sin ti, me mata
     LAm                            SOL#
   por favor, no te vayas dejandome asi
                       FA               MI
   no te alejes no me hagas sufrir..te ruego.
    LAm                                             SOL#
   Y si no has de volver mejor clava en mi pecho un puñal
                    FA               MI
   pero fuerte y profundo me das a muerte.
    LAm                                      SOL#
   De que sirve vivir si al final estoy solo sin ti
                        FA            MI
   yo la vida no la quiero asi...sin verte

    bajos       LAm
   6--0-2-3--------
   5--------0------
   4---------------
   3---------------
   2---------------
   1---------------

    CORO:
      LAm        SOL#
    /Sin verte cariiiiñooo
        FA         MI
    prefiero la muerte/ ( biss )
                     LAm
    que vivir... sin verte....

    NOTA: se repite los bajos y luego el estrivillo..escuchen
          la cancion y podran seguir el ritmo....en la nota de
          sol# hacerlo en el tercer traste

            estrivillo final
      6-----------------------------------------------
      5-----------------------------------------------
      4-----------------------------------------------
      3-----------------------------------------------
      2-----------------------------------------------
      1-0-1-0-1-0--8;--0-1-0-1-0--8--6-5--------------

            
            
Suggest correction
Creating personal tab
Creating personal tab
You can edit any tab online and save it as your Personal.

You can edit, replace or remove any tab part or add personal notes – all changes will be seen only by you.

Personal tabs can be accessed anytime from any device, even offline.
Learn more »
Give kudos to tab author, rate the tab!
1 2 3 4 5
comments
print report bad tab
guest
Wanna post a correction for this tab? Suggest correction