Oops, an error
Loading. Please wait.

Un Cachito De Cielo tab

version 2
version 2

Whole song

29 views 1 this week
no commentswrite comment
1 2 3 4 5
3 more votes to show rating
add to favorites
×
Save as Personal and add changes to this tab that will be seen only by you. Learn more ›
×
You can save this tab as Personal to edit and correct it or add notes. All changes will be seen only by you. Learn more »
launch autoscroll
font size
0
reset
how to read this tab
guitar tuner
edit
Autoscroll
slow
fast
+/-
esc
set tempo
stop
INTRO:
Guitarra
|-----------------------------------------
|-3-3/5-5/7--7-10-8----12-10-12-10--5--5/7
|-----------------------------------------
|-----------------------------------------
|-----------------------------------------
|-----------------------------------------

Entran los violines (00:07)

Guitarra (00:22)
|---------------------3-2-----------------
|---3-3-----3-3---------------3-3---------
|--2---2-2/4---------2---2-2/4------------
|-0-----------------0---------------------
|-----------------------------------------
|-----------------------------------------

ESTA PARTE LA TOCAN CON UN ARPEGIO BASE

D                   G                D
Vaya manera de perderlo todo en un instante
    G                    A         D
vaya manera de perder tu amor sin engañarte
           G                      A
por más que quiero no lo puedo entender
            F#m               Bm
y aunque quisiera no lo puedo cambiar
        G                          A
me he convertido en un cachito de cielo
      D
para cuidarte


|----8--5----------
|----------8--7----
|------------------
|------------------
|------------------
|------------------

RASGUEO

       D               G
Estoy seguro nada será igual
        A                 D
y no me importa volver a empezar
       G                  F#m
estoy seguro que no será fácil
          F#m                  Bm
que tu de mi te vuelvas a enamorar
           Em                      A
me he convertido en un cachito de cielo
        G        D
y lo voy a lograr

F - G

               C                    D
Cachito de cielo que ilumine tu vida
                 G    F#m     Em
que le de mucha luz a tu soledad
            Am                       D7
cachito de cielo que por donde quiera
          G      G7
te acompañaraaaaaaaa

            C                 D
Cachito de cielo que te cuidara

D#m                             Em
cachito de cielo que nunca se ira
               Am   D7              G
cachito de cielo que siempre te amara

Bm - C - D


|------------------
|----5-----5-------
|-------7-----6---
|------------------
|------------------
|------------------


       D                G
Estoy seguro nada será igual
        A                  D
y no me importa lo voy a intentar
         G              F#m
perdí la vida y la felicidad
        F#m               Bm
perdí tu amor y hasta la identidad
            Em                     A
me he convertido en un cachito de cielo
             G        D
y no voy a renunciar

F - G

            C                     D
Cachito de cielo que ilumine tu vida
                 G    F#m     Em
que le de mucha luz a tu soledad
           Am                       D7
cachito de cielo que por donde quiera
          G      G7
te acompañaraaaaaaa


            C                  D
Cachito de cielo que te cuidara
D#m                             Em
un cachito de cielo que nunca se ira
               Am   D7              G
un cachito de cielo que siempre te amara

Bm - C - D


|---7-7--8-10--8-7----
|---8-8-10-12-10-8----
|---------------------
|---------------------
|---------------------
|---------------------

            
            
Suggest correction
Creating personal tab
Creating personal tab
You can edit any tab online and save it as your Personal.

You can edit, replace or remove any tab part or add personal notes – all changes will be seen only by you.

Personal tabs can be accessed anytime from any device, even offline.
Learn more »
Give kudos to tab author, rate the tab!
1 2 3 4 5
comments
print report bad tab
guest
Wanna post a correction for this tab? Suggest correction