Oops, an error
Loading. Please wait.

Angel Caído tab

39 views 1 this week
no commentswrite comment
1 2 3 4 5
3 more votes to show rating
add to favorites
×
Save as Personal and add changes to this tab that will be seen only by you. Learn more ›
×
You can save this tab as Personal to edit and correct it or add notes. All changes will be seen only by you. Learn more »
launch autoscroll
font size
0
reset
how to read this tab
guitar tuner
edit
Autoscroll
slow
fast
+/-
esc
set tempo
stop
Bello tema compuesto por Luis Pastor, interpretado numerosas veces
por Pedro Guerra, tema que conocí por un amigo más de  Julen.
Espero les guste.

El tab de la intro está simplificado, se puede usar más arpegeo.
Acordes al final del tema.

INTRO
       LA9-LA              LA-6
|-----------------------------------------|
|---------------0-2(0)-----2-------2------|
|-------------2--------2--------2---------|
|----------2-----------------3------------|
|-------0------------------0--------------|
|-----------------------------------------|

  RE9       REm        MI7
|--------0-----1(0)-------0----0--------0--|
|------3---------------3-------------------|
|----2------------------------------1------|
|-0------------0---------------------------|
|------------------------------------------|
|------------------------------0-----------|

     DO#m/LA   SIm7   LA/DO#     FA7     MI7 - MI7/4
|-----------------------------|------1-----------------------------|
|------5-------3------2----2--|--1-----1----------0---0------------|
|-------------------------2---|----------------1-----------2(1)----|
|--------6-------5-------2----|----1--------0----------------------|    X2
|--0-----------2------4-------|------------------------------------|
|-----------------------------|--1-------0------------0------------|


A)
       LA
Hay un sueño
            FA#m
que ronda mi casa
              DO#7/-3
y aparca en mi frente
        FA#m
Hay un ángel
            FA-5/+7
caído en mi cama
MI         Mi(7/4)
que quiere cogerme

A)
Hay un tierno
brillante equilibrio
de luz en mi almohada
Hay un hueco
lugar de tu imagen
conmigo en la cama.

B)
       LA
Hay un hueco
FA#m        FA-5/+7
lugar de tu imagen
  MIMI-6 Mi(7/4) LA
conmigo en la cama.

(Intro)

A)
Hay un triste
reflejo de cielo
flotando en mi alma
Hay un libro
desnudo de rima
que a veces me calma

A)
Hay un dulce
recuerdo de ola
sonando mi arena
Y una nube
pintada de agua
que moja mi pena

B)
Y una nube
pintada de agua
que moja mi pena (bis)


acordes:
La      002220
La9     002200
La-6    003220
Re9     X00230
Rem     X00231
Mi      022100
Mi7     020100
Mi4     022200
Mi7/4   020200
Mi-6    022110
Fa#m    244222
Do#7/-3 X43420
Do#m/La X0665X
Sim7    224232
La/Do#  X4222X
Fa7     131211
Fa-5/+7 133200

            
            
Suggest correction
Creating personal tab
Creating personal tab
You can edit any tab online and save it as your Personal.

You can edit, replace or remove any tab part or add personal notes – all changes will be seen only by you.

Personal tabs can be accessed anytime from any device, even offline.
Learn more »
Give kudos to tab author, rate the tab!
1 2 3 4 5
comments
print report bad tab
guest
Wanna post a correction for this tab? Suggest correction