Oops, an error
Loading. Please wait.

Cien Años tab

version 2
version 2

Whole song

284 views 3 this week
no commentswrite comment
1 2 3 4 5
3 more votes to show rating
add to favorites
×
Save as Personal and add changes to this tab that will be seen only by you. Learn more ›
×
You can save this tab as Personal to edit and correct it or add notes. All changes will be seen only by you. Learn more »
launch autoscroll
font size
0
reset
how to read this tab
guitar tuner
edit
Autoscroll
slow
fast
+/-
esc
set tempo
stop
Esta es una versión que sale en una película llamada
?Cuidado con el Amor? vean el video primero y luego
lo intentan.
Para mi gusto es la mejor versión de esta canción
para una guitarra. Suerte amigos!  Disfruten y compartan

Link del video: 

*Requinto*
                                    ]arrastrar] ]arrastrar]
1|---10-10-10-10-10-10--|10-9--8--7-|-8-9-10---8-9-10-----|
2|---12-12-12-12-12-12--|12-11-10-8-|---------------------|
3|----------------------|-----------|---------------------|
4|----------------------|-----------|---------------------|
5|-12-------------------|-----------|---------------------|
6|----------------------|-----------|---------------------|

1|----------------------|-----------------------------(12)-|
2|---13-11-10-----------|-----------------------------(12)-|
3|------------12-10-----|------------------10---------(12-)|
4|----------------------|-12H13-12H13--13----13-12---------|
5|----------------------|----------------------------------|
6|----------------------|----------------------------------|
Nota: (12) significa harmónicos en el trasto 12, las tres
primeras cuerdas al mismo tiempo.

  Arpegeo(a) Am*   Arpegeo(b) G*
1|---------------|--------------------|
2|----0-0----0-0-|--------------------|
3|---0--0---0--0-|----2-2-----2-2-----|
4|--2----2-2----2|---4---4---4---4----|
5|-0------0------|--5-----5-5-----5---|
6|---------------|-3-------3-------3--|
Nota: ver al final ?Tabla de acordes raros?

Escalita puente para volver a la siguiente estrofa (c)
                  (C)
1|-8-7-5-------------------------(12)-|
2|-------8-7-5-------------------(12)-|
3|-------------7-5-4-2-0---------(12)-|
4|-----------------------4-2-2-0------|
5|------------------------------------|
6|------------------------------------|

*Requinto se repite dos veces*

             (A)
Pasaste a mi lado
               (B)
Con gran indiferencia
            (A)
Tus ojos ni siquiera
                (B)
Voltearon hacia mí.

               (A)
Te vi sin que me vieras
                    (B)
Te hable sin que me oyeras
              (A)
Y toda mi amargura
                   G*      C G
Se ahogo dentro de mí.

*Coro en ritmo Bolero*
   G7             C
Me duele hasta la vida
   G7             C
Saber que me olvidaste
A7             D7
Pensar que ni desprecio
A7            (C)
Merezca yo de ti.

              (A)
Y sin embargo sigues
               (C)
Unida a mi existencia
               (A)
Y si vivo cien años
                    (B)
Cien años pienso en ti.

*Requinto se repite dos veces*

Pasaste a mi lado...

*Coro en ritmo Bolero*

*Introducción (Requinto) se repite dos veces*

Tablatura de Acordes raros:
Cuerda #       G*      Am*
       1       X       X
       2       X       0
       3       2       0
       4       4       2
       5       5       0
       6       3       X

Nota: La cuerda con X no se toca
Suggest correction
Creating personal tab
Creating personal tab
You can edit any tab online and save it as your Personal.

You can edit, replace or remove any tab part or add personal notes – all changes will be seen only by you.

Personal tabs can be accessed anytime from any device, even offline.
Learn more »
Give kudos to tab author, rate the tab!
1 2 3 4 5
comments
print report bad tab
guest
Wanna post a correction for this tab? Suggest correction