Oops, an error
Loading. Please wait.

Degeneración Actual tab

337 views 3 this week
no commentswrite comment
1 2 3 4 5
3 more votes to show rating
add to favorites
×
Save as Personal and add changes to this tab that will be seen only by you. Learn more ›
×
You can save this tab as Personal to edit and correct it or add notes. All changes will be seen only by you. Learn more »
launch autoscroll
font size
0
reset
how to read this tab
guitar tuner
edit
Autoscroll
slow
fast
+/-
esc
set tempo
stop
        C                                G
Ella bajo la escalera, no fue la primera y un muchacho muy amable salio
      Dm                                F
Vamos yo soy buena gente, tomate esto que hace calor
          C                             G
Y en un segundo la puso a dormir, y en un segundo la pudo desvestir
      Dm                                 F
cuando ella abrio los ojos estaba tirada en un jardin

CORO:
         C         E          Am      C7
De generacion actual, degeneracion total
           F              Dm            C         G 
es el anti-amor, la facinacion que degenero al final


      C                                         G
Dos hombres de la mano, no hay nada de malo si en el futuro no quieres pensar
        Dm                                 F
Luego llegan las traiciones, solo y sin amores te vas
            C                                 G
El bien y el mal no deben competir, que nunca luchen dentro de ti
      Dm                              F
los deseos casi siempre, suelen hacerse realidad


CORO

SOLO:

E----------8-8----8----8-8----8-10-12-10p8-10-12-10-8----8---
B------s10-----10---10-----10-------------------------10---10
G------------------------------------------------------------
D------------------------------------------------------------
A------------------------------------------------------------
E------------------------------------------------------------


E-----------------------------------------------------8-10---
B-8-----------------------------------------------8h10-------
G---9-8-7-5--7/9-7h9-9-9p7---7/5-7-5--5------5-7s9-----------
D------------------------------------7--7/5\7----------------
A------------------------------------------------------------
E------------------------------------------------------------


E--10h12p10-10s8-10p8-15~15~15-------------------------------
B-----------------------------17-15~--13---------------------
G-----------------------------------14-----------------------
D------------------------------------------------------------
A------------------------------------------------------------
E------------------------------------------------------------


         C                       G
Y si te quieres esclavisar, y para siempre te quieres condenar
      Dm                              F
solo dale a tus instintos, toda y toda la libertad


CORO (2 veces)

C    E           Am          C7
Amor a la verdadera, son cosas muy a la ligera
F         Dm                        C       G
disfraz para el que lo entienda, quizas eso nos proteja


       C                                    G
Por un poco de dinero, sin remordimiento 2 hnos se pueden matar
      Dm                                          F
por stress o aburrimiento otros se suelen suicidar
      C                              G
asesinatos en television, o violaciones a la luz del sol
  Dm                                             F
crimenes perfectos, juicios que no tienen valor 


CORO (2 veces)


ARMONICA: todo en G


Amor a la verdadera, son cosas muy a la ligera
disfraz para el que lo entienda, quizas eso nos proteja
Amor a la verdadera, son cosas muy a la ligera
disfraz para el que lo entienda, regresaremos...


CORO (varias veces)

            
            
Suggest correction
Creating personal tab
Creating personal tab
You can edit any tab online and save it as your Personal.

You can edit, replace or remove any tab part or add personal notes – all changes will be seen only by you.

Personal tabs can be accessed anytime from any device, even offline.
Learn more »
Give kudos to tab author, rate the tab!
1 2 3 4 5
comments
print report bad tab
guest
Wanna post a correction for this tab? Suggest correction