Oops, an error
Loading. Please wait.

Lo Olvidé tab

160 views 3 this week
no commentswrite comment
1 2 3 4 5
3 more votes to show rating
add to favorites
×
Save as Personal and add changes to this tab that will be seen only by you. Learn more ›
×
You can save this tab as Personal to edit and correct it or add notes. All changes will be seen only by you. Learn more »
launch autoscroll
font size
0
reset
how to read this tab
guitar tuner
edit
Autoscroll
slow
fast
+/-
esc
set tempo
stop
por: MK CLASES DE GUITARRA MODERNA (LIMA) Conviértete en un
músico experto. Desarrolla tu habilidad instrumental, auditiva y
teórica. Excelente para el aprestamiento. Alto nivel de enseñanza.
Precios bajos y horarios flexibles. 

Saludos, que disfruten la canción...

Pedro Suarez Vertiz - Lo olvidé
Felicito a Pedro por el nivel alcanzado, "Play" tiene el nivel
internacional, pero nunca saldrá si compramos piratería.

Esta canción la puedes tocar como el disco o simplemente
rasgueando.

INTRO
   SIm    DO     SOL      MI-7    RE  (2veces)
1|-2---2---3---3---3---3---3---3---2---2---2---2-|
2|-3-3-3-3-3-3-3-3-3-3-3-3-3-3-3-3-3-3-3-3-3-3-3-|
3|-----------------------------------------------|
4|-------------------------2-------0-------------|
5|-2-------3-------------------------------------|
6|-----------------3-----------------------------|

ESTROFAS
  SOL             RE              SI 
1|-3---3---3---3---2---2---2---2-------------------|
2|-3-3-3-3-3-3-3-3-3-3-3-3-3-3-3-3-4---4---4---4---|
3|---------------------------------4-4-4-4-4-4-4-4-|
4|-----------------0-------------------------------|
5|---------------------------------2---------------|
6|-3-----------------------------------------------|

   MIm            DO 
1|-0---0-----------0---0---0---0-------------------|
2|-0-0-0-0-3---3---1-1-1-1-1-1-1-1-3---3---3---3---|
3|---------4-4-4-4-----------------4-4-4-4-4-4-4-4-|
4|-2-----------------------------------------------|
5|-----------------3-------------------------------|
6|-------------------------------------------------|

   RE             SOL 
1|-2---2---2---2---3---3---3---3---|
2|-3-3-3-3-3-3-3-3-3-3-3-3-3-3-3-3-|
3|---------------------------------|
4|-0-------------------------------|
5|---------------------------------|
6|---------------------------------|

ESTROFAS
SOL                RE 
SE que debí tomar tu mano
SIm                MIm
Cuando solíamos caminar
DO                SOL 
Sé que debí estar a tu lado
RE                    SOL 
Para algo más que disfrutar

CORO
Utilizar acordes transportados (DO+ 35553X ; RE+ 57775X)
DO                     RE 
Lo olvidé... lo olvidé, lo olvidé... uhhhhh
DO                      RE 
Lo olvidé... lo olvidé, lo olvidé... uhhhhh

ESTROFAS
Sé que debí dejar de lado
Que la razón debía ganar
Sé que debí no hacerme caso
Sé que debí volver a amar

CORO

INTRO

ESTROFAS
De nada sirve decir te amo
De nada sirve ahora llorar
Como quisiera estar soñando
Y con tus besos despertar
(Termina en Mi-)
Una oportunidad perdida
En el amor no vuelve más..  uuhhh no no no
Son las lecciones de la vida.. hey!
Que nunca más te servirán

CORO
(sigue Do+ Re+)
 Y ahora la vida se rompe... Mi alma está sola
... Escucho tu nombre... Mis ojos te lloran... te lloran amor

INTRO
FINAL encima del INTRO
...Se que debi haber amado, pero es muy tarde, lo olvide..
...Quiero estar entre tus brazos, y que tus besos, me despierten.
...Perdonamee...


Espero que no haya resultado tan dificil... pero no se arrepentirán
porque es una versión exacta.
Suggest correction
Creating personal tab
Creating personal tab
You can edit any tab online and save it as your Personal.

You can edit, replace or remove any tab part or add personal notes – all changes will be seen only by you.

Personal tabs can be accessed anytime from any device, even offline.
Learn more »
Give kudos to tab author, rate the tab!
1 2 3 4 5
comments
print report bad tab
guest
Wanna post a correction for this tab? Suggest correction