Oops, an error
Loading. Please wait.

Te Siento De Solo Pensar tab

200 views 3 this week
no commentswrite comment
1 2 3 4 5
3 more votes to show rating
add to favorites
×
Save as Personal and add changes to this tab that will be seen only by you. Learn more ›
×
You can save this tab as Personal to edit and correct it or add notes. All changes will be seen only by you. Learn more »
launch autoscroll
font size
0
reset
how to read this tab
guitar tuner
edit
Autoscroll
slow
fast
+/-
esc
set tempo
stop
esta cancion me encanta y es la mejor k sake y se la dedico
pa mi amiga del alma, alicia silva casusol.
no piensen mal enfermos, solo es mi amiga y naa mas,
ademas yo se k ella jamas me hara caso, pero le tengo un hambre
jajaja,,,bromita naa mas ,,t kiero mas k a nada

NOTAS:

G*:355433
D:557775
G**:7(10)9787
Em:779987
Bm:799777
C:8(10)(10)988


INTRO

   G*        D         Em
-3-----3-|-5-----5-|-7------7-|-12-10--7-|
---3-----|---7-----|---8------|------10--|
-----4---|-----7---|-----9----|----------|
---------|---------|----------|----------|
-5-------|-5-------|-7--------|----------|
---------|---------|----------|----------|


   G*        D         Em
-3-----3-|-5-----5-|-7------7-|-7h10-7---|
---3-----|--7------|---8------|-------10-|
-----4---|-----7---|-----9----|----------|
---------|---------|----------|----------|
-5-------|-5-------|-7--------|----------|
---------|---------|----------|----------|


G       D           Em
Cuando recuerdo tus besos
G            D      Em
Busco un tranquilo lugar
G        D         Em
Donde apoyar mi  cabeza
G        D       Em
Donde ponerme a soñar


     Bm          G**
Respirar en la penumbra
              Em
Suspirando de a pocos
   C              G**     Em
Te siento de solo pensar

(este es el arpegio anterior)

   Bm            G**       Em
-----7----|-------7----|-----7----|
------7---|--------8---|------8---|
---7---7--|-----7---7--|---9---9--|
--9-----9-|----9-----9-|--9-----9-|
-9--------|--10--------|-7--------|
----------|------------|----------|

     C            G**       Em
------8----|-------7----|-----7----|
-------8---|--------8---|------8---|
----9---9--|-----7---7--|---9---9--|
--10----10-|----9-----9-|--9-----9-|
-10--------|--10--------|-7--------|
-----------|------------|----------|


        Bm               G**
Y es verdad que en la penumbra
              Em
Si cierro mis ojos
   C                   G*
Me duermo y te puedo tocar

(este arpegio es igual al anterior solo
Que le aumentamos el intro al final)

   Bm            G**       Em
-----7----|-------7----|-----7----|
------7---|--------8---|------8---|
---7---7--|-----7---7--|---9---9--|
--9-----9-|----9-----9-|--9-----9-|
-9--------|--10--------|-7--------|
----------|------------|----------|

     C
------8----|
-------8---|
----9---9--|
--10----10-|
-10--------|
-----------|

   G*        D         Em
-3-----3-|-5-----5-|-7------7-|-7h10-7---|
---3-----|--7------|---8------|-------10-|
-----4---|-----7---|-----9----|----------|
---------|---------|----------|----------|
-5-------|-5-------|-7--------|----------|
---------|---------|----------|----------|

G        D        Em
Sentimental sufrimiento
G        D      Em
El no poderte gozar
G        D            Em
Me despertaste algo eterno
G         D       Em
Que nunca podré calmar


    Bm            G
Recitar en la penumbra
               Em
Un poema de a pocos
     C                   G**   Em
Creo que me va a trankilizar

        Bm            G**
Y es verdad mi amor a solas
              Em
Si cierro mis ojos
     C                 G*  (D Em)
Me duermo y te puedo besar


?me puedes amar?

     Bm            G**
Respirar en la penumbra
               Em
Suspirando de a pocos
    C                G**   Em
Te siento de solo pensar

     Bm             G**
Y además mi amor a solas
             Em
Si cierro mis ojos
    C                  G*   (D Em)
Me duermo y te puedo tocar


?Te puedo besar?

       Bm           G**
Fue quizás de una mirada
                  Em
Que mi alma en tu cuerpo
   C                 G**  Em
Entro y no regreso jamás

      Bm         G**
La verdad toda mi vida
               Em
La llevo en silencio
    C             G*  (D Em)
Tú eres mi felicidad


?Mi felicidad?

?Nos podemos amar?


NOta: si kieren la tocan con acordes normales
tambien suena y
si hay dudas me escriben ,,

DAR LAS GRACIAS NO CUESTA NADA jaja

            
            
Suggest correction
Creating personal tab
Creating personal tab
You can edit any tab online and save it as your Personal.

You can edit, replace or remove any tab part or add personal notes – all changes will be seen only by you.

Personal tabs can be accessed anytime from any device, even offline.
Learn more »
Give kudos to tab author, rate the tab!
1 2 3 4 5
comments
print report bad tab
guest
Wanna post a correction for this tab? Suggest correction