Oops, an error
Loading. Please wait.

Pregón De La Pobreza tab

190 views 1 this week
no commentswrite comment
1 2 3 4 5
3 more votes to show rating
add to favorites
×
Save as Personal and add changes to this tab that will be seen only by you. Learn more ›
×
You can save this tab as Personal to edit and correct it or add notes. All changes will be seen only by you. Learn more »
launch autoscroll
font size
0
reset
how to read this tab
guitar tuner
edit
Autoscroll
slow
fast
+/-
esc
set tempo
stop
INTRO:
E----3---2---2---2----2---3-0-----------0------I
B-----0---0-0-0-0-0-0--0-----0-0-----0/3--3-0--I
G------0---0---0---0----0-----0---0/2------0---I
D----------------------------------------------I
A---------------------3------------------------I
E-3--------------------------------------------I

E---3---2---3/5-5/7-7----0---2---3--0---2---3-0-----I
B----0---0-0------------0-----0------0-0-0------0-0-I
G-----0---0------------0-------0------0---0------0--I
D---------------------------------------------------I
G----------------------------3------3---3------3----I
E-3-------------------------------------------------I

E---------------------------------------------I
B---3---0-----0---3---0-----0----3---0--------I
G----0-----0/2--0--0-----0/2------0-----0/2-0-I
D-----0---0---------0---0----------0---0------I
A------------------------------3--------------I
E-3-------------------------------------------I

*la parte "I" es prácticamente lo mismo que en la introducción

I:
Sin dudar, lo vi entregar
La postal, con la verdad
De la miseria escondida
del padre con su bebida.
I:
Al pasar, mi asiento va
Sin piedad y sin bondad
Pidiendo alguna moneda
Pensando alguna tarea
Equilibrando sus piernas
Lidiando contra la inercia
      Am                G
Y sin pesar en su suerte
       F
Escapo por la alameda

La intención no es molestar
Es pedir a voluntad
Una moneda perdida
Una caricia sentida
    Am               G
Una sonrisa encendida
        F
La mesa con la comida

G         Em
Y aguarda espesa la noche
D        C
Le da de golpes la vida
G       Am
En la frenada su muerte
G        F
En su niñez una herida
G       Em
Mi mano que se contrae
D      C
Tacaña mano sin vida
G          Am
Los dioses pongan sus voces
G         F
Hagan sanar esta herida

G - Em - D - C - G - Am - G - F x2
Final : F

            
            
Suggest correction
Creating personal tab
Creating personal tab
You can edit any tab online and save it as your Personal.

You can edit, replace or remove any tab part or add personal notes – all changes will be seen only by you.

Personal tabs can be accessed anytime from any device, even offline.
Learn more »
Give kudos to tab author, rate the tab!
1 2 3 4 5
comments
print report bad tab
guest
Wanna post a correction for this tab? Suggest correction