Oops, an error
Loading. Please wait.

Romántico Y Ninfómana tab

35 views 1 this week
no commentswrite comment
1 2 3 4 5
3 more votes to show rating
add to favorites
×
Save as Personal and add changes to this tab that will be seen only by you. Learn more ›
×
You can save this tab as Personal to edit and correct it or add notes. All changes will be seen only by you. Learn more »
launch autoscroll
font size
0
reset
how to read this tab
guitar tuner
edit
Autoscroll
slow
fast
+/-
esc
set tempo
stop
esta version es para tocarla en guitarra


Intro:  Riff 1

Riff 1
voy a empezar esta cancion,
hay cosas que no tienen fin.
TU amor llego del aire
quedate muy junto a mi.

Riff 1
Eres mi radiotransgresion
bolero, AM, madre vi
Atraso oscuro, errante
todo brilla hoy por ti

Riff 2  x2

Riff 1
Si solamente era temor,
si hemos llegado hasta aqui,
la vida es un instante
ya no hay tiempo para huir.

Riff 1
Rendi mis cuentas sin pudor
auspiciador del frenesi
Romantico y nifomana
estoy listo para ti.

Riff 3 x4

(sE REPITO LO MISMO SOLO QUE UN EN TONO MAYOR)
Gm-A#
Voy a entregarte el corazon
bajo un lluvia de acerrín
como el dolor también
desaparecere de aqui

eres las doce en mi reloj
vampira en lima de abril
preciosa, sabia amante,
mi vida esta junto a ti

Riff 4
Gm - A#


Riff 1  (darle ritmo)

  Fm   G#  Fm
e--1---4---1---
 --1---4---1---
 --1---5---1---
 --2---6---2---
 --2---6---2---
 --1-3-4-3-1---


Riff 2
e--------------------------------------------
 -8/9-8/9---varias veces----11/8-9/8---------
 -------------------------------------10-8---
 --------------------------------------------
 --------------------------------------------
 --------------------------------------------

Riff 3
  F#5             G#5
e------------------------------------------
 ---------------------10-10-10-10-8--------
 -----------------------------------10-----
 ------------------------------------------
 -8-8-8-8-6-------6------------------------
 -----------8-6-8--------------------------

Riff 4
--------------------------------------
--------------------------------------
--------------------------------------
--------------------5-3---------------
--3-5-3--3--------------6-5-3-5-6-6---
-------6---3----3-6-------------------


Dudas o consultas
jdrb22@



            
            
Suggest correction
Creating personal tab
Creating personal tab
You can edit any tab online and save it as your Personal.

You can edit, replace or remove any tab part or add personal notes – all changes will be seen only by you.

Personal tabs can be accessed anytime from any device, even offline.
Learn more »
Give kudos to tab author, rate the tab!
1 2 3 4 5
comments
print report bad tab
guest
Wanna post a correction for this tab? Suggest correction