Oops, an error
Loading. Please wait.

Para Qué? bass

61 views 1 this week
no commentswrite comment
1 2 3 4 5
3 more votes to show rating
add to favorites
×
Save as Personal and add changes to this tab that will be seen only by you. Learn more ›
×
You can save this tab as Personal to edit and correct it or add notes. All changes will be seen only by you. Learn more »
launch autoscroll
font size
0
reset
guitar tuner
edit
Autoscroll
slow
fast
+/-
esc
set tempo
stop
Acariciando un sueño más,?

G|--------------------------------------------------- x2
D|---------------------------------------------------
A|-----------5--5-5---3--3-3--3--------2--2----------
E|--3---3-3-----------------------0--0---------------

G|---------------------------------------------------
D|---------------------------------------------------
A|-----------5--5-5---3--3-3--3----------------------
E|--3---3-3-----------------------0?-0---------------


Vas perdiendo la noción,?

G|---------------------------------------------------
D|---------------------------------------------------
A|--3--3-3---3-----------3--3-3--3-------------------
E|-------------0--0-0--0------------0--0-0--0--------

G|--------------------------------------------------------------
D|--------------------------------------------------------------
A|--3--3-------5--5-5--3--3-3--3--------------------------2-2---
E|-------5--5--------------------5--5-5--5--3--3-3--3-0--0------


Si a las montañas o al mar,?

G|---------------------------------------------------
D|---------------------------------------------------
A|-----------5--5-5--3--3-3-------2--2---------------
E|--3--3-3-------------------0--0--------------------

G|---------------------------------------------------
D|---------------------------------------------------
A|-----------5--5-5--3--3-3--------------------------
E|--3--3-3------------------0--0---------------------


Vas perdiendo la noción,?

G|---------------------------------------------------
D|---------------------------------------------------
A|--3--3-3--3-----------3--3-3--3--------------------
E|-------------0--0-0-0------------0--0-0--0---------

G|---------------------------------------------------
D|---------------------------------------------------
A|--3--3-------5--5-5--5-3--3-3--3-------------------
E|-------5--5----------------------0--0-0------------


Y ahora no puedes ver más?

G|---------------------------------------------------
D|-----------------------11-9-------9-7--------------
A|-----5---5-7-5-9--12-9------12-14-----9-7-9-7-9----
E|--7----7-------------------------------------------

G|---------------------------------------------------
D|---------------------------------------------------
A|-----------------5---5-7-5----7-7-5-------7-7-5----
E|--7-0-7-12-10-7----7-------0--------7-0?0-------7--


Acariciando un sueño mas,


G|---------------------------------------------------
D|---------------------------------------------------
A|-------------5--5-5--5-3--3-3----------------------
E|--3---3-3--3---------------------------------------


Espero que les sirva che.
Muy buen tema! y no es dificil. Una parte la saque a oido asique
te recomiendo que la toques encima de la cancion
asi la sacas mejor. ;)

suerte.

            
            
Suggest correction
Creating personal tab
Creating personal tab
You can edit any tab online and save it as your Personal.

You can edit, replace or remove any tab part or add personal notes – all changes will be seen only by you.

Personal tabs can be accessed anytime from any device, even offline.
Learn more »
Give kudos to tab author, rate the tab!
1 2 3 4 5
comments
print report bad tab
guest
Wanna post a correction for this tab? Suggest correction