Oops, an error
Loading. Please wait.

La Última Balada De Amor tab

22 views 1 this week
no commentswrite comment
1 2 3 4 5
3 more votes to show rating
add to favorites
×
Save as Personal and add changes to this tab that will be seen only by you. Learn more ›
×
You can save this tab as Personal to edit and correct it or add notes. All changes will be seen only by you. Learn more »
launch autoscroll
font size
0
reset
how to read this tab
guitar tuner
edit
Autoscroll
slow
fast
+/-
esc
set tempo
stop
E:---------------------------10-12-10--8-8------8-------8-----
B:-1--1-3-5-3-----1-3-5-8-8----------------8/10---9/10--------
G:------------0 2---------------------------------------------
D:------------------------------------------------------------
A:------------------------------------------------------------
E:------------------------------------------------------------


E:-15-14-13-12--12-15-12-10-8-8--15--17--15-15----------------
B:------------------------------------------------------------
G:------------------------------------------------------------
D:---------------------------------------------12-14-12-------
A:------------------------------------------------------------
E:------------------------------------------------------------

en la parte final D:12-14-12 lo hacen rapido iwal que en la parte
E:------8-------8-------
B:8/10---9/10-----------

en LA parte E:-10/12--  pasan como deslisando el dedo sobre
los espacios E:10-11-12 Y DEVUELTA LO MISMO DESLISAN

no se como se llama eso creo que Slide una wea asi xd

bueno ese es el punteo de la balada espero les guste :)


Aguante pEn mierdaaa.........
cualker cosa mi msn: vaga_adiccion@

si no les gustaa avisen

            
            
Suggest correction
Creating personal tab
Creating personal tab
You can edit any tab online and save it as your Personal.

You can edit, replace or remove any tab part or add personal notes – all changes will be seen only by you.

Personal tabs can be accessed anytime from any device, even offline.
Learn more »
Give kudos to tab author, rate the tab!
1 2 3 4 5
comments
print report bad tab
guest
Wanna post a correction for this tab? Suggest correction