Oops, an error
Loading. Please wait.
14 views 1 this week
no commentswrite comment
1 2 3 4 5
3 more votes to show rating
add to favorites
×
Save as Personal and add changes to this tab that will be seen only by you. Learn more ›
×
You can save this tab as Personal to edit and correct it or add notes. All changes will be seen only by you. Learn more »
launch autoscroll
font size
0
reset
transpose
0
reset
display chords
guitar tuner
edit
Autoscroll
slow
fast
+/-
esc
set tempo
stop
Strumming
There is no strumming pattern for this song yet. and get +5 IQ
Tesoro

Intro: | E | Am | A | Dm | E | Am | E | Am |

E          Am       A       Dm
   Varias hojas de menta frías,

E
   congeladas.

      Am       E       Am
   Tesoro de verde cristal.

Las guardé una noche en casa,
con sabor de promesa,
de festejo especial

¡De ilusión también se vive:
siempre un brindis más,
siempre la copa próxima es la mejor!
Pero el tiempo mezcló esas noches
y la esperanza fue engaño
al no ver la ocasión.

Parte de contrabajo (va más o menos así, pero varía,
la figuras rítmicas no están bien, escuchen el tema
para ver cómo es):


e|-------------------------------------------------------
B|-------------------------------------------------------
G|-------------------------------------------------------
D|-2--2--2--2--3-----------------------------------------
A|-----------------5----------5--5--5--5--7--3-----------
E|-------------------------------------------------------

e|-------------------------------------------------------
B|-------------------------------------------------------
G|-------------------------------------------------------
D|-------------------------------------------------------
A|-3--3--3--3--5---2----------2--2--2--3-----------------
E|----------------------------------------4--5-----------


Ví pasar el día por la ventana,
los colores,
las cosas que tendría que hacer.
Y la noche me reflejó en el vidrio.
Me miré un rato a los ojos
y me desafié.

¡Venga soda, venga menta y hielo!
Que este vaso se eleva por lo que ya no seré.
Y un premio:
en sólo una noche
gastarse todas esas joyas verdes
en brindar por lo que soy.

Comentarios, dudas, sugerencias: sschroeder80@
Suggest correction
Creating personal tab
Creating personal tab
You can edit any tab online and save it as your Personal.

You can edit, replace or remove any tab part or add personal notes – all changes will be seen only by you.

Personal tabs can be accessed anytime from any device, even offline.
Learn more »
Give kudos to tab author, rate the tab!
1 2 3 4 5
comments
print report bad tab
guest
Wanna post a correction for this tab? Suggest correction