Oops, an error
Loading. Please wait.

Murga Para Tu Soledad tab

13 views 1 this week
no commentswrite comment
1 2 3 4 5
3 more votes to show rating
add to favorites
×
Save as Personal and add changes to this tab that will be seen only by you. Learn more ›
×
You can save this tab as Personal to edit and correct it or add notes. All changes will be seen only by you. Learn more »
launch autoscroll
font size
0
reset
how to read this tab
guitar tuner
edit
Autoscroll
slow
fast
+/-
esc
set tempo
stop
                   Dm                    E                Am
Hoy caminando por ahi escuche que no queres estar mas conmigo
                 Dm                     E                      Am
pero te digo mi amor el que no quiere estar mas con vos hoy soy yo
                   Dm                   E                 Am
Y no te acerques pa' nada acepta por favor el consejo de amigo
                 Dm                  E                Am
mi corazon esta duro y lastima cuan duro esta hoy el amor

e|-------------------5-5---------------------------|
b|-------------------5-5---------------------10----|
g|-6/5---8-6/5-------5-5--6/5---8-6/5-6-8-10----10-|
d|-----8-------8-7-8----------8--------------------|
a|-------------------------------------------------|
E|-------------------------------------------------|

e|-------------------5-5--------------------|
b|-------------------5-5--------------------|
g|-6/5---8-6/5-------5-5--6/5---8-6/5-----v-|
d|-----8-------8-7-8----------8-------8-7-8-|
a|------------------------------------------|
E|------------------------------------------|

                   Dm                    E                Am
En un boliche de mala muerte encontre hoy por hoy un abrigo
                   Dm                    E                Am
gaste unos pesos preste mi oreja, llore, y escribi una cancion
                   Dm                    E                Am
y aunque nunca fui amante de amar de prestado o comprar el amor
                   Dm                    E                Am
hoy lo andube buscando entre los callejones de Constitución

Dm       E        Am  Dm      E        Am
Y encontre esta murga para bailar con vos
Dm         E        Am
Si mi amor no te deslumbra
F              E           Am      G
por favor no vuelvas si me rechazas
F              E           Am      G
por favor no vuelvas si me rechazas
F              E
por favor no vuelvas

e|-------------------5-5---------------------------|
b|-------------------5-5---------------------10----|
g|-6/5---8-6/5-------5-5--6/5---8-6/5-6-8-10----10-|
d|-----8-------8-7-8----------8--------------------|
a|-------------------------------------------------|
E|-------------------------------------------------|

e|-------------------5-5--------------------|
b|-------------------5-5--------------------|
g|-6/5---8-6/5-------5-5--6/5---8-6/5-----v-|
d|-----8-------8-7-8----------8-------8-7-8-|
a|------------------------------------------|
E|------------------------------------------|

Lei en un diario que alla por la Boca habian matado a un amigo
lo enontraron tirado y con varios corchazos en un callejon
y ahora entiendo porque hay tanta guerra y porque he terminado contigo
como carajo va a estar todo bien si habian matado el amor

Y encontre esta murga para bailar con vos
Si mi amor no te deslumbra
por favor no vuelvas si me rechazas
por favor no vuelvas si me rechazas
por favor no vuelvas

e|---------------------------|
b|---------------------------|
g|-/-/-/-/----7--------6-----|
d|-9-8-7-6--9---9-8--8---8-7-|
a|---------------------------|
E|---------------------------|

e|-----------------------------------------------------|
b|-----------------------------------------------------|
g|-----------------------------------------------------|
d|-------7-6---6-5---------------7-6---6-5-------------|
a|-----7-----7-----5-8-7-------7-----7-----5-8-7-------|
E|-5-8-------------------8-5-8-------------------8-5-8-|

Tu cielo se cayo y nadie te aviso

E|---------|
E|---------|
E|---------|
E|---------|
E|-7-7-5-v-|
E|-5-4-3-2-|

Esta es la version del disco nuevito!
la otra que esta, que esta con el nombre
de Murga para "tu" soledad" es la version del demo,
un toque distinta,, las dos estan buenas y suenan diferente
a tocarlas...
gracias a May que me ayudo a sacarlas...
te amo cielo!!!
en marzo nace Joaquin!
Suggest correction
Creating personal tab
Creating personal tab
You can edit any tab online and save it as your Personal.

You can edit, replace or remove any tab part or add personal notes – all changes will be seen only by you.

Personal tabs can be accessed anytime from any device, even offline.
Learn more »
Give kudos to tab author, rate the tab!
1 2 3 4 5
comments
print report bad tab
guest
Wanna post a correction for this tab? Suggest correction