Oops, an error
Loading. Please wait.

San Expedito tab

24 views 1 this week
no commentswrite comment
1 2 3 4 5
3 more votes to show rating
add to favorites
×
Save as Personal and add changes to this tab that will be seen only by you. Learn more ›
×
You can save this tab as Personal to edit and correct it or add notes. All changes will be seen only by you. Learn more »
launch autoscroll
font size
0
reset
how to read this tab
guitar tuner
edit
Autoscroll
slow
fast
+/-
esc
set tempo
stop
   E     G     A     E     G     A
e|-------------------------------------|
b|-----------------------0-------------|
g|-----1-----0-----2-----1-----0-----2-|
d|---2-----0-----2-----2-----0-----2---|
a|-------------0-----------------0-----|
E|-0-----3-----------0-----3-----------|

E               G    A
Cuantas noches que pasaron
E             G      A
cuantas horas se escaparon
E             G    A             E  G A
tantas lunas malgastadas por amor

Prisionero de tus besos
rey de corazon desechos
no hay mas suerte que aquella que fabricas vos

E               G        A
Con el mes de abril de aliado
E            G          A
me dejaste roto y mal parado
E           G        A         E  G A
Cachetazos desaparraman mi ilusion

Por tus rulos colorados
y esos besos dibujados
le pedi a San expedito que me diera una cancion

Bm                   G
Para así volverte a ver
Bm                   G
ya que lo he perdido todo por amor
Bm                    G                         F#
la esperanza es la mentira mas grande que me quedo

E      G     A      E   G A   E  G A        E G A
De amor me estas matando,   morir asi es mejor
E      G     A      E   G A   E  G A        E G A
De amor me estas matando,   morir asi es mejor

e|-13-13-13/12----13-13/12-------13-13-13/12----13-13/12----|
b|-------------11----------13-11-------------11----------13-|
g|----------------------------------------------------------|
d|----------------------------------------------------------|
a|----------------------------------------------------------|
E|----------------------------------------------------------|

e|-13-x-13-x-13-x-13-x-13----------------
b|-13-x-13-x-13-x-13-x-13-13-14-15-------
g|-11-x-11-x-11-x-11-x-11-13-14-15-------
d|---------------------------------------
a|---------------------------------------
E|--------------------------------------

13-x-13-x-13-x-13--11--9--13--11--10--9-|
13-x-13-x-13-x-13--11--9--13--11--10--9-|
11-x-11-x-11-x-11--9---7--11--9----8--7-|
----------------------------------------|
----------------------------------------|
----------------------------------------|

E7/9
Que mala nena me dejaste con la vena
Enroscado en tu melena no te pude ni tocar
Y ahora te miro por tu flog cada mañana
mientras fumo marihuana y escucho Chiche Graciano
Y para colmo estas de novia con un vago
que tiene mi mismo nombre
No le gusto y no te asombre
Y lo sabes, vos lo sabes
Gualter!

G|-----------------0-|
B|-----------------0-|
E|-----------------1-|
G|-----------------2-|
B|-3-5-3-2-3-2-----2-|
E|-------------3-0-0-|

Cuantas noches que pasaron
cuantas horas se escaparon
tantas lunas malgastadas por amor

Prisionero de tus besos
rey de corazon desechos
no hay mas suerte que aquella que fabricas vos

Para así volverte a ver
ya que lo he perdido todo por amor
la esperanza es la mentira mas grande que me quedo

De amor me estas matando, morir asi es mejor
De amor me estas matando, morir asi es mejor


lejos este disco es el mejor de la Perra, y esta cancion
se zarpa... disfruitenla... gracias mia mor que me ayudo
a sacarla bien...
hasta luego y aguante la Perra!

            
            
Suggest correction
Creating personal tab
Creating personal tab
You can edit any tab online and save it as your Personal.

You can edit, replace or remove any tab part or add personal notes – all changes will be seen only by you.

Personal tabs can be accessed anytime from any device, even offline.
Learn more »
Give kudos to tab author, rate the tab!
1 2 3 4 5
comments
print report bad tab
guest
Wanna post a correction for this tab? Suggest correction