Oops, an error
Loading. Please wait.

La Guatusa De Caín chords

13 views 1 this week
no commentswrite comment
1 2 3 4 5
3 more votes to show rating
add to favorites
×
Save as Personal and add changes to this tab that will be seen only by you. Learn more ›
×
You can save this tab as Personal to edit and correct it or add notes. All changes will be seen only by you. Learn more »
launch autoscroll
font size
0
reset
transpose
0
reset
display chords
guitar tuner
edit
Autoscroll
slow
fast
+/-
esc
set tempo
stop
Strumming
There is no strumming pattern for this song yet. and get +5 IQ
INTRO:
1--2--2--0--2---2---2----5---0-------------------------
2-----------------------------------3-3--0--3-3-3--5--7
3----------------------------------------------------------
4----------------------------------------------------------
5----------------------------------------------------------
6----------------------------------------------------------
Pueden hacer el intro en los versos.

Bm                             E
Hay una parte del país que esta podrido,
Bm                                 E
Hay una parte de la gente que hace ruido
Bm                                    E
 y es que este ruido herido la mar ha vivido,
Bm            E              Bm         E  Bm          E
 sin libido, sin sexo, sin perdón, sin perdón.

Bm                                           E
Hay grupos que hablan de formar una guerrilla
Bm                          E
para tratar de eliminar al cabecilla
Bm                                      E
y aquí la people esta cansada, desganada,
Bm                         E    Bm                   E   Bm                  E
desangrada, mutilada, de andar en nada, de andar en nada,
Bm                    E   Bm                   E
de andar en nada, de andar en nada.

Dm
Quienes te harán lo malo todos vamos al revés,
Am                                     Dm
las camas son las bancas, del cielo te salen los pies,
G                                         Bb                                    A
 del cielo te salen los pies, del cielo te salen los pies.

Coro:
Dm                                    Am
Donde pongo tanta rabia, tantas flores tanta sal,
G                                   Am
mi ciudad esta minada, por los restos de Caín,
Dm                                      Am
esta Biblia es mi principio, labios, besos, corrupción,
G                                      Am
 mi ciudad esta minada, por los restos de Caín,
Dm                                Am
como queda mi bolero, si no tengo desamor,

G                                      A
como quedará tu equipo, si me ganó por un gol.

Dm-Am-G-A

1--2--2--0--2---2---2----5---0---------------------
2-------------------------------3-3--0--3-3-3--5--7
3--------------------------------------------------
4--------------------------------------------------
5--------------------------------------------------
6--------------------------------------------------
(3 veces)
Bm                             E
Hay una parte del país que esta podrido,
Bm                                 E
Hay una parte de la gente que hace ruido
Bm                                    E
 y es que este ruido herido la mar ha vivido,
Bm            E              Bm         E  Bm        E Bm         E  Bm        E
 sin libido, sin sexo, sin perdón, sin perdón, sin perdón, sin perdón.

Coro:
Dm                                    Am
Donde pongo tanta rabia, tantas flores tanta sal,
G                                   Am
mi ciudad esta minada, por los restos de Caín,
Dm                                      Am
esta Biblia es mi principio, labios, besos, corrupción,
G                                      Am
 mi ciudad esta minada, por los restos de Caín,
Dm                                Am
como queda mi bolero, si no tengo desamor,
G                                      A
como quedará tu equipo, si me ganó por un gol.

Dm-Am-G-A


1--2--2--0--2---2---2----5---0---------------------
2-------------------------------3-3--0--3-3-3--5--7
3--------------------------------------------------
4--------------------------------------------------
5--------------------------------------------------
6--------------------------------------------------
Suggest correction
Creating personal tab
Creating personal tab
You can edit any tab online and save it as your Personal.

You can edit, replace or remove any tab part or add personal notes – all changes will be seen only by you.

Personal tabs can be accessed anytime from any device, even offline.
Learn more »
Give kudos to tab author, rate the tab!
1 2 3 4 5
comments
print report bad tab
guest
Wanna post a correction for this tab? Suggest correction