Oops, an error
Loading. Please wait.

Cristálida bass

57 views 1 this week
no commentswrite comment
1 2 3 4 5
3 more votes to show rating
add to favorites
×
Save as Personal and add changes to this tab that will be seen only by you. Learn more ›
×
You can save this tab as Personal to edit and correct it or add notes. All changes will be seen only by you. Learn more »
launch autoscroll
font size
0
reset
guitar tuner
edit
Autoscroll
slow
fast
+/-
esc
set tempo
stop
Los guiones marcan el comienzo de cada compas.

1:18
                 (3 veces)                                              \
            ?sombras inútiles del parque?     ?cansado?  ?de que lo     |
G|--------------------------------------------|--------------------     |
D|--------------------------------------------|--------------------     |
A|---------------------5---7---8---10\--------|--------------------     |
E|-5--5--5--5\--------------------------------|-5--5--5--5\--------     |
                                                                        |
   -                -                -                -                 |
?observen los de afuera?                                      ?hoy el?  |
G|----------------------------------------------------------7-----7---  |
D|--------------------------------------------------------------------  |
A|----------------------------------------------------5---------------  |
E|-3----------------5----------------5--------------------------------  |
                                                                        |
   -                -                -                -                 |
?viento?   ?baila asi?                                 ?como junto al?  |
G|-------7-----7------------------------------------------------------  |
D|--------------------------------------------------------------------  |
A|-5----------------5-----5----------5-----5----------5-------4-------  |Parte
E|--------------------------------------------------------------------  |  A
                                                                        |
   -                -                -                -                 |
?fuego?                                     ?y los luceros?             |
G|-----------------------------------------7----------------7---------  |
D|--------------------------------------------------------------------  |
A|-----------------------------------5----------------5---------------  |
E|-7-----7-------5--5h7----7------------------------------------------  |
                                                                        |
   -                -                -                -                 |
?enormes?                             ?como junto al fuego?             |
G|--------------------------------------------------------------------  |
D|--------------------------------------------------------------------  |
A|-5-----5----------5-----5------5-0-5-------4------------------------  |
E|----------------------------------------------------7---7-7---7--7-7  /

   -                   -               -                -
        ?los luceros enormes?        ?toda la noche gritaran?
G|------------------------------------------------------------------------
D|------------------------------------------------------------------------
A|------------------------------------------------------------------7-5-7-
E|-5--5--5-5--5--5--5--7-7-7-7-7-7-7-7-5---2---2--2--2--0-0-0-0-0-0-------

   -                 -                     -
?tentando a la colina, ah ah ah?      ?tentando a la colina?  \
G|----------------------------------------------------------  |
D|-3-----------------------------3-1------------------------  |
A|----3--2--3---3----3--3--2--0-----3-3-3-3---3--2--3---3---  |
E|-----------------3-----------------------1---------------3  |
                                                              |
   -                     -                 -                  |
 ?ah ah ah?         ?tentando a la colina?  ?ah ah ah?        |
G|---------------------------------------------------------   |
D|-------------3-1-----------------------------------------   | Parte
A|-3--3--2--0-----3-3-3-3---3--2--3---3----3--3--2--0----0-   |   B
E|-----------------------1---------------3-----------------   |
                                                              |
   -                                                          |
     ?ah ah ah?                                               |
G|-------------------------                                   |
D|-------------------------                                   |
A|-0--0--------------------                                   |
E|-------3--1---1---1---1--                                   /

        (3 veces)                                                       \
G|---------------------|--------------------------                      |
D|---------------------|--------------------------                      |
A|----------------5----|-----------8--8-8-8-8-8-8-                      |
E|-5-5--5-5--5---------|-6-5--6-5-----------------                      |
                                                                        |
        (3 veces)                      ?¿como hacer que este valle, de? |
G|------------------4-----|-------------------------------------------- |
D|--------------------4---|-------------------------------------------- |
A|-3-3--3-3--3----2-----2-|-3-2--3-2--0----------------0--------------- |
E|------------------------|-------------------------------------------- |
                                                                        |
?huecos?                             ?no suba mas por mi??         ?no? |
G|--------------------------------------------------------------------- |
D|--------------------------------------------------------------------- |Parte
A|-7-----8---10---7----0--------------0----------------0--------------- |  C
E|--------------------------------------------------------------------- |
                                                                        |
?tengo mas dios?                 ?no tengo mas dios?                    |
G|--------------------------------------------------------------------- |
D|--------------------------------------------------------------------- |
A|-7-----8---10---7----0--------------7-----8---10--7---0-------------- |
E|--------------------------------------------------------------------- /

4:59
   -                 -                     -
?cruzando la tormenta,ah ah ah?      ?cruzando la tormenta?
G|----------------------------------------------------------
D|-3-----------------------------3-1------------------------
A|----3--2--3---3----3--3--2--0-----3-3-3-3---3--2--3---3---
E|-----------------3-----------------------1---------------3

   -                     -                 -
 ?ah ah ah?         ?cruzando la tormenta?  ?ah ah ah?
G|----------------------------------------------------------
D|-------------3-1------------------------------------7-5-7-
A|-3--3--2--0-----3-3-3-3---3--2--3---3----3--3--2--0-------
E|-----------------------1---------------3------------------

   -
     ?ah ah ah?
G|-------------------------
D|-------------------------
A|-0--0--------------------
E|-------3--1---1---1---1--

Repite parte A. Despues:

   -              -              -                -
 ?y las luces primeras?        ?ya empezaron a desperezar?
G|---------------------------------------------------------------------
D|---------------------------------------------------------------------
A|----------------------------------------------------7------7---------
E|-5--5-5-5-5-5-5-7--7-7-7-7-7-7-5---2--------2-2-0------0-0----0-0-0-0

Repite parte B, C. Despues:

8:15
                 (3 veces)
            ?sombras inútiles las de este?    ?cansado?        ?de?
G|--------------------------------------------|--------------------
D|--------------------------------------------|--------------------
A|---------------------5---7---8---10\--------|--------------------
E|-5--5--5--5\--------------------------------|-5--5--5--5\--------

? devorar a los de abajo?
G|--------------------------------------------------------------------
D|--------------------------------------------------------------------
A|--------------------------------------------------------------------
E|-3-------------------5----------------------------------------------

\: slide down (?arrastrar hacia atrás)
h: hammer on (ligado)

Cristalida-Aguas claras de olimpos (Spinetta)

Aguas claras de Olimpos,
que la Diosa guarda...
los caballos del día,
que la Diosa guarda...
los caballos del día,
sudan de golpe frente a mí...
temblando de carreras...
temblando de carreras...

Sombras inútiles del parque...
los que llamaba no aparecieron...
todo gigante muere cansado,
de que lo observen los de afuera...

Hoy el viento baila así...
como junto al fuego...
y los luceros enormes,
como junto al fuego...
los luceros enormes,
toda la noche gritarán...
tentando a la colina...
tentando a la colina...

¿Cómo hacer que este valle, de huecos,
no suba más por mí?
no tengo más Dios...
no tengo más Dios...
no tengo más Dios...

Unas ramas nacidas,
del viejo monte...
están siempre, siempre brotando...
del viejo monte...

Están siempre brotando...
yo ya casi no las puedo controlar...

Cruzando la tormenta...
Cruzando la tormenta...
Cruzando la tormenta...

Sombras inútiles del parque...
los que llamaba no aparecieron...
todo gigante termina exhausto,
de que lo observen los de afuera...

Miro ya los relojes,
entre la neblina...
y las luces primeras,
entre la neblina...
y las luces primeras,
ya empezaron a desperezar...
gorriones en la leña...
gorriones en la leña...
gorriones en la leña...

¿Cómo hacer que este valle, de huecos,
no suba más por mí?
no tengo más Dios...
no tengo más Dios...
no tengo más Dios...

Sombras inútiles las de este parque...
los que llamaba ¡no!
no aparecieron...
todo gigante muere cansado,
y ¡devora a los de abajo...!!!
Suggest correction
Creating personal tab
Creating personal tab
You can edit any tab online and save it as your Personal.

You can edit, replace or remove any tab part or add personal notes – all changes will be seen only by you.

Personal tabs can be accessed anytime from any device, even offline.
Learn more »
Give kudos to tab author, rate the tab!
1 2 3 4 5
comments
print report bad tab
guest
Wanna post a correction for this tab? Suggest correction