Oops, an error
Loading. Please wait.

Hola Pequeño Ser bass

106 views 1 this week
no commentswrite comment
1 2 3 4 5
3 more votes to show rating
add to favorites
×
Save as Personal and add changes to this tab that will be seen only by you. Learn more ›
×
You can save this tab as Personal to edit and correct it or add notes. All changes will be seen only by you. Learn more »
launch autoscroll
font size
0
reset
guitar tuner
edit
Autoscroll
slow
fast
+/-
esc
set tempo
stop
G|----------------------------------------------------------------
D|----------------------------------------------------------------
A|----------------------------------------------------------------
E|-0-0-0-0-1-1-1-1-2-2-2-2-3-3-3-3-4-4-4-4-5-5-5-5-6-6-6-6-7-7-7-7

G|------------------------------------
D|------------------------------------
A|------------------------------------
E|-8-8-8-8-9-9-9-9-9-9-9-9-10-10-10---
                                                           \
G|-------------------------------------------------------  |
D|-------11|12|11-12|12-----------11|12|11-12|12---------  |
A|---------------------12-----------------------12-------  |
E|-10-10-----------------10-10--10------------------10-10  |Parte
                                                           |  A
G|----------------------------------------------------     |
D|-------11|12|11-12|12--------------11|12|11-12------     |
A|---------------------12------------------------0-3-4     |
E|-10-10-----------------10-10--10-10-----------------     |
                                                           /
?Hola,pequeño ser,si tu mente se vaja tenes que pa-
G|-----------------------------------------------------
D|-----------------------------------------5--5--------
A|-5--5--5--5--1--1-1-1-1-----------------5--5--0-0-3-4
E|---------5--5-----------1|2--2-2-2-2-2---------------

rar,no no no,pequeño ser si tu mente se viaja tenes que pa-
G|---------------------------------------------------
D|---------------------------------4--4--5--5--7--7--
A|-5--5--5--5--1--1-1-1-1---------4--4-----5-----7---
E|------5--5--5-----------1-2--2---------------------

rar y aprender a vivir de lo que vos pensas
G|-------------------------------------
D|---------------7-7-7--5-5-5----------
A|-7--7---7---7----------------5-5-5-5-
E|------7---7--------------------------

Repite Parte A. Despues:

?Hola,pequeño ser,lo que amaba en vos ya no lo tengo
G|----------------------------------------------------
D|---------------------------------4--4---5--5--------
A|-5--5--5--5--1--1-1-1-1---------4--4---5--5--0-0-3-4
E|------5--5--5-----------1|2--2----------------------

mas,no no no,pequeño ser si tu mente se viaja tenes que pa-
G|--------------------------------------------------
D|------------------------0-2-4--4--4--4--5--5--7--7
A|-5--5--5--5--1--1-1-1-1----------4--4-----5-----7-
E|------5--5--5-------------------------------------

rar y aprender a vivir de lo que vos pensas
G|--------------------------------------------
D|---------------7-7-7--5-5-5-----------------
A|-7--7---7---7----------------5-5-5-5--------
E|------7---7----------------------------0---1
                 ?hacelo por mi pequeño ser?
G|------------------------------------------------------------------
D|-----------------------------------10h12-12-12-------10h12-12-12--
A|----2h3-3h4-4h5-5h7-7h8-8-10---5---------------5-5---------------5
E|-3---------------------------3------------------------------------

G|-----------------------------------------------------
D|--5-553-332-22--------------------4--5-5-6-6-7-7--\12
A|--------------5-5----22-33-4--5-55-------------------
E|------------------33---------------------------------

G|----------------------------------------------------------
D|----------------------------------------------------------
A|-3-2-1----1-0--------2-345--4-567-5----5-3-1-----1-0------
E|--------------2-----3------5-------------------------2----

(repetir las vueltas necesarias mientras pasan los solos de guitarra
y órgano hasta el cambio siguiente en el tiempo marcado)
G|---------------|
D|---------------|
A|--2-345--4-567-|
E|-3------5------|

         ?ya se acerca ya la sombra del trueno?
6:33                  (6 veces)
G|--------|-9---7---5---4---7------7-10--9---|
D|--------|-7---5---3---2---777777-7-10--9---|
A|--2-345-|----------------------------------|
E|-3------|----------------------------------|

                              Parte B
G|-----------------------------------------------------------------------
D|-----------------------------------------------------------------------
A|---------3--5-------------------------------3--5-----------------------
E|-5---5-5-------3---1-0--1-0--1-0--1-5---5-5-------3---1-0--1-0--1-0--1-

                              Parte C
G|-----------------------------------------------------------------------
D|---------2--3------3-2--3-2--3-2--3---------2--3------3-2--3-2--3-2--3-
A|-3---3-3-------2--------------------3---3-3-------2--------------------
E|-----------------------------------------------------------------------

Repite Parte B, C y B (5 veces) hasta:

9:12
G|------------------------------------------------------
D|------------------------------------------------------
A|---------3--5-------------------------------3--5------
E|-5---5-5-------3---1-0--1-0--1-0--1-5---5-5-------3---

Final
G|----------------------------------------------------------
D|----------------------------------------------------------
A|----------------------------------------------------------
E|-1-0--1-0----1-0--1-0----1-0--1-0--1-0--1-0-----5\--------


Hola pequeño ser (Cutaia-Amaya-Spinetta)

Hola (pequeño ser)
si tu mente se viaja tenés que parar...
no, no, no, pequeño ser,
si tu mente se viaja tenés que parar...
y aprender a vivir de lo que vos pensás...

Hola, pequeño ser,
lo que amaba en vos ya no lo encuentro más...
no, no, no, pequeño ser,
si tu mente se viaja tenés que parar...
y aprender a vivir de lo que vos pensás...
hacelo por mí, pequeño ser

Ya, se acerca ya la sombra del trueno...
en la mesa está,
la araña de fiebre...
nadie quiere ya las flores del campo...
y en la tumba estás,
helado de llanto...
y no podes más...


 \: slide down (?arrastrar hacia atrás)
     h: hammer on (ligado)
 x |x : tocar las dos notas consecutivamente rápido por Ej. 11|12

El que quiera le mando una tab de este tema mas completa. Con todas
las variaciones de las vueltas del final del tema.
Mientras sus temas se sigan tocando y escuchando el Carpo y el
Flaco jamás morirán, vivirán eternamente en la memoria de todos.
Suggest correction
Creating personal tab
Creating personal tab
You can edit any tab online and save it as your Personal.

You can edit, replace or remove any tab part or add personal notes – all changes will be seen only by you.

Personal tabs can be accessed anytime from any device, even offline.
Learn more »
Give kudos to tab author, rate the tab!
1 2 3 4 5
comments
print report bad tab
guest
Wanna post a correction for this tab? Suggest correction