Oops, an error
Loading. Please wait.

Las Habladurías Del Mundo tab

version 1
version 1

Whole song

Interactive

509 views 6 this week
no commentswrite comment
1 2 3 4 5
2 more votes to show rating
add to favorites
×
Save as Personal and add changes to this tab that will be seen only by you. Learn more ›
×
You can save this tab as Personal to edit and correct it or add notes. All changes will be seen only by you. Learn more »
launch autoscroll
font size
0
reset
how to read this tab
guitar tuner
edit
Autoscroll
slow
fast
+/-
esc
set tempo
stop
Introducion

Emaj7--Amaj7--C# (repite 3 veces)
Emaj7/B--A--F#m--Fmaj7/#11--E--C#

Comienza cantando sobre estas notas

e------------------------------
b------------------------------
g-----------9-11-11e12-9-------
d------9-11---------------11-9-
a-9-11-------------------------
E------------------------------

  Toda toda la ternura me daras

e-------6-------6---------5-------5------4--
b-----6-------6---6-----5-------5---5----6--
g---8-------8---------6-------6----------6--
d-9-------9---------7-------7------------6--
a----------------------------------------4--
E------------------------------------------- 
                                        C#
   Si te ofrezco ser parte de tu cuerpo

e---------------------------------------------------4-
b------------------------------------------------5--6-
g------------------------------------------------4--6-
d-----9-9-11---------9-9-9-11-----------------9--3--6-
a9-11-----------9-11----------11-10---10-9----9--4--4-
E------------11---------------------9------9--7-------


e------------------------------
b------------------------------
g-----------9-11-11e12-9-------
d------9-11---------------11-9-
a-9-11-------------------------
E------------------------------

  Y al acariciarme me daras

e-------6-------6---------5-------5------4--
b-----6-------6---6-----5-------5---5----6--
g---8-------8---------6-------6----------6--
d-9-------9---------7-------7------------6--
a----------------------------------------4--
E------------------------------------------- 
                                         C#
    los espejos que son de tu guia del alma

e---------------------------------------------------4-
b------------------------------------------------5--6-
g------------------------------------------------4--6-
d-----9-9-11---------9-9-9-11-----------------9--3--6-
a9-11-----------9-11----------11-10---10-9----9--4--4-
E------------11---------------------9------9--7-------


e------------------------------
b------------------------------
g-----------9-11-11e12-9-------
d------9-11---------------11-9-
a-9-11-------------------------
E------------------------------

 mientras oigo trinos voces oigo mas

e-------6-------6---------5-------5------4--
b-----6-------6---6-----5-------5---5----6--
g---8-------8---------6-------6----------6--
d-9-------9---------7-------7------------6--
a----------------------------------------4--
E------------------------------------------- 
                                        C#
son aquellos los dioses que nos escuchaban

e--------------------------------
b--------------------------------
g--------------------------------
d-------9-9-11---------9-9-9-11--
a--9-11-----------9-11-----------
E--------------11----------------

C#m7\9            F#m
 no estoy atado a ningun sueno ya
C#m7/9              F#m             A          C#
las habladurias del mundo no pueden atraparnos

e--------------------------------
b--------------------------------
g--------------------------------
d-------9-9-11---------9-9-9-11--
a--9-11-----------9-11-----------
E--------------11----------------

Solo con base: A-B-A-C# (repite 5 veces)

Repite introducion

e------------------------------
b------------------------------
g-----------9-11-11e12-9-------
d------9-11---------------11-9-
a-9-11-------------------------
E------------------------------

  veo veo las palabras nunca son

e-------6-------6---------5-------5------4--
b-----6-------6---6-----5-------5---5----6--
g---8-------8---------6-------6----------6--
d-9-------9---------7-------7------------6--
a----------------------------------------4--
E------------------------------------------- 
                                        C#
              lo mejor para estar desnudos

e---------------------------------------------------4-
b------------------------------------------------5--6-
g------------------------------------------------4--6-
d-----9-9-11---------9-9-9-11-----------------9--3--6-
a9-11-----------9-11----------11-10---10-9----9--4--4-
E------------11---------------------9------9--7-------


e------------------------------
b------------------------------
g-----------9-11-11e12-9-------
d------9-11---------------11-9-
a-9-11-------------------------
E------------------------------

  ni ni la anaconda es como el buey

e-------6-------6---------5-------5------4--
b-----6-------6---6-----5-------5---5----6--
g---8-------8---------6-------6----------6--
d-9-------9---------7-------7------------6--
a----------------------------------------4--
E------------------------------------------- 
                                        C#
           ya no hay mas reyes de la selva

e---------------------------------------------------4-
b------------------------------------------------5--6-
g------------------------------------------------4--6-
d-----9-9-11---------9-9-9-11-----------------9--3--6-
a9-11-----------9-11----------11-10---10-9----9--4--4-
E------------11---------------------9------9--7-------


e------------------------------
b------------------------------
g-----------9-11-11e12-9-------
d------9-11---------------11-9-
a-9-11-------------------------
E------------------------------

  toda toda la ternura me daras 

e-------6-------6---------5-------5------4--
b-----6-------6---6-----5-------5---5----6--
g---8-------8---------6-------6----------6--
d-9-------9---------7-------7------------6--
a----------------------------------------4--
E------------------------------------------- 
                                        C#
      si te ofresco ser carne de tu cuerpo

e--------------------------------
b--------------------------------
g--------------------------------
d-------9-9-11---------9-9-9-11--
a--9-11-----------9-11-----------
E--------------11----------------

C#m7\9            F#m
no estoy atado a ningun sueno ya
C#m7/9              F#m             A          C#
las habladurias del mundo no pueden atraparnos


e--------------------------------
b--------------------------------
g--------------------------------
d-------9-9-11---------9-9-9-11--
a--9-11-----------9-11-----------
E--------------11----------------

Solo con base: A-B-A-C# (repite 5 veces)

Repite introducion y termina

Acordes:     E A D G B E
Emaj7        0 7 9 8 9 7
Amaj7        5 x 6 6 5 x
C#           x 4 6 6 6 x
Emaj7/B      7 7 9 8 9 7
A            5 7 7 6 5 5
Fm#          2 4 4 2 2 2
Fmaj7/#11    1 3 3 2 0 0
E            0 2 2 1 0 0
Cm#7/9       9 119 9 9 11 

Espero que les guste, aguante chaca y el rey del paty

            
            
Suggest correction
Creating personal tab
Creating personal tab
You can edit any tab online and save it as your Personal.

You can edit, replace or remove any tab part or add personal notes – all changes will be seen only by you.

Personal tabs can be accessed anytime from any device, even offline.
Learn more »
Give kudos to tab author, rate the tab!
1 2 3 4 5
comments
print report bad tab
guest
Wanna post a correction for this tab? Suggest correction