Oops, an error
Loading. Please wait.

Las Habladurías Del Mundo bass

version 1
version 1

Whole song

Interactive

236 views 1 this week
no commentswrite comment
1 2 3 4 5
3 more votes to show rating
add to favorites
×
Save as Personal and add changes to this tab that will be seen only by you. Learn more ›
×
You can save this tab as Personal to edit and correct it or add notes. All changes will be seen only by you. Learn more »
launch autoscroll
font size
0
reset
guitar tuner
edit
Autoscroll
slow
fast
+/-
esc
set tempo
stop
Los guiones marcan la mitad de cada compas de tiempo.

         (3 veces)                                      \
   -               -                                    |
G|---------------------------|                          |
D|---------------------------|                          |
A|-7-7-7---0-0-0---4-4-4-4---|                          |
E|---------------------------|                          |
                                                        |
   -               -               -                    |
G|-----------------------------------------------       |
D|-----------------------------------------------       | Parte
A|-2-2-2--------------------------------7--7-----       |   A
E|---------5-5-5---2-2-2---1-1-1---0----------5-7       |
                                                        |
   -              -                                     |
                    ?Toda toda la ternura me da-        |
G|----------------------------------------------        |
D|----------------------------------------------        |
A|-7----7--7------------------------------------        |
E|------------7-8-9-----------------------------        /

   -             -          -                -
ras?   ?si te ofrezco ser parte de tu cuerpo?                    \
G|------------------------------------------------------------   |
D|-----------------------------------9---9-11---------9-9-9-11   |
A|-----6-9-----------------------9-11-------------9-11--------   |
E|-7---------7-6-5---5---7--9----------------9----------------   | Parte
                                                                 |   B
   -                       -                                     |
                                  ?y al acariciarme me da-       |
G|--------------------------------------------------------       |
D|----------------------4---------------------------------       |
A|---11-----10--------------4-----------------------------       |
E|-9----9-8----8-7----------------------------------------       /

Repite parte B. Despues:

   -             -          -                -
mas?   ?son aquellos los dioses nos escuchaban nena?
G|------------------------------------------------------------
D|-----------------------------------9---9-11---------9-9-9-11
A|-----6-9-----------------------9-11-------------9-11--------
E|-7---------7-6-5---5---7--9----------------9----------------

   -         -             -            -             -
?no estoy atado a ningun sueño ya, las habladurias del mundo?
G|-----------------------------------------------------------------
D|----------------4--4-----------------------4--4-----1----1-1--1-1
A|-4---4--------4------4---4-----4---------4------4----------------
E|---------4-2-----------2-----4------4-2-----------2--------------

   -           -              -
no, no
G|---------------------4---4-6--------4-4-4-6---
D|-4----4---4-------4-6------------4-6----------
A|----2---2----4--------------4-----------------
E|----------------------------------------------

            (5 veces)
G|--------------------------------|
D|--------------------------------| Parte
A|-0---2---0---4-4-4-4-4-4-4-4-4--|   C
E|--------------------------------|

Repite parte A, B (2 veces). Despues:

  -              -          -                -
ras?   ?si te ofrezco ser parte de tu cuerpo?
G|------------------------------------------------------------
D|-----------------------------------9---9-11---------9-9-9-11
A|-----6-9-----------------------9-11-------------9-11--------
E|-7---------7-6-5---5---7--9----------------9----------------

   -         -             -             -             -
?no estoy atado a ningun sueño ya, las habladurias del mundo?
G|-------------------------------------------------------------------
D|----------------4---------------------------4--4-4-2--1---1---1--2-
A|-4---4--------4------4---4---4-4-4-4------4------------------------
E|---------4-2-----------2-------------4-2-------------0--------------

   -           -              -
no, no?
G|---------------------4---4-6--------4-4-4-6---
D|-4----4---4-------4-6------------4-6----------
A|----2---2----4--------------4-----------------
E|----------------------------------------------

Repite parte C. Despues:

         (3 veces)
   -               -
G|---------------------------|
D|---------------------------|
A|-7-7-7---0-0-0---4-4-4-4---|
E|---------------------------|

   -               -               -
G|-----------------------------------------------
D|-----------------------------------------------
A|-2---------------------------------------------
E|---------5-------2-------1-------0-------------


Las habladurías del mundo (Spinetta)

Toda toda la ternura me darás
si te ofrezco ser
parte de tu cuerpo
Y al acariciarme me darás
los espejos que son de tu día del
alma
Mientras oigo trinos voces
oigo más
son aquellos los dioses, nos escuchaban nena

No estoy atado a ningun sueño ya
Las habladurías del mundo
no pueden atraparnos

Veo veo las palabras nunca son
lo mejor para estar desnudos
Ni ni la anaconda es como el buey
ya no hay más reyes de la selva
Toda toda la ternura me darás
si te ofrezco ser carne de tu cuerpo

No estoy atado a ningun sueño ya
Las habladurías del mundo
no pueden atraparnos

            
            
Suggest correction
Creating personal tab
Creating personal tab
You can edit any tab online and save it as your Personal.

You can edit, replace or remove any tab part or add personal notes – all changes will be seen only by you.

Personal tabs can be accessed anytime from any device, even offline.
Learn more »
Give kudos to tab author, rate the tab!
1 2 3 4 5
comments
print report bad tab
guest
Wanna post a correction for this tab? Suggest correction