Oops, an error
Loading. Please wait.

Mañana O Pasado bass

version 1
version 1

Whole song

Interactive

41 views 1 this week
no commentswrite comment
1 2 3 4 5
3 more votes to show rating
add to favorites
×
Save as Personal and add changes to this tab that will be seen only by you. Learn more ›
×
You can save this tab as Personal to edit and correct it or add notes. All changes will be seen only by you. Learn more »
launch autoscroll
font size
0
reset
guitar tuner
edit
Autoscroll
slow
fast
+/-
esc
set tempo
stop
El bajo en este tema lo toca el flaco, que loco. Con las dos partes que marque
alcanza para acompañar el tema. Puse todas las vueltas por las dudas.

 ?Hoy?   ?me?       ?vuelo?               ?de?
G|--------------------------------------------
D|-5------------------------------------------     /_____________
A|---------5------5----3--3--3--3--3--3--3--3-     \
E|--------------------------------------------

 ?tan     tas        ?caras?          ?¿no ves?
G|---------------7----------------------------
D|-5-----------7---7--------------------------
A|---------5-----------3--3--3--3--3--3--3--3-
E|--------------------------------------------

  ?algo?  ?en?   ?el puente?           ?que se?
G|---------------------------------------------
D|-5-------------------------------------------
A|---------5------5----3--3--3--3---3--3--3--3-
E|--------------------------------3------------

 ?va??
G|-----------------------------7--------------------
D|-3--3--3-----3---3---3--3-------------------------    /_____________
A|---------------------------5-----5--5--5--5--5--5-    \
E|----------1----1---1------------------------------

G|---------------7------------------------------
D|-------------7---7----------------------------
A|---------5---------5-5-3--3--3--3--3--3--3--3-
E|-3--------------------------------------------

G|---------------7------------------------------
D|-------------7---7----------------------------
A|---------5---------5-5-3--3--3--3--3--3--3--3-
E|-3--------------------------------------------

 ?¡hola? ?dul       ce viento!?          ?veo?
G|---------------7----------------------------
D|-5-----------7---7--------------------------
A|---------5-----------3--3--3--3--3--3--3--3-
E|--------------------------------------------

?clara    mente? ?en ti?                 ?eres?
G|---------------------------------------------
D|-5----5\-------------------------------------
A|---------5------5-5---3--3--3--3--3--3--3--3-
E|---------------------------------------------

 ?como?  ?mi?         ?amiga?         ?que se?
G|--------------------------------------------
D|-5------------5---5-------------------------
A|---------5------5----3--3--3--3--3--3--3--3-
E|--------------------------------------------

?va?                      ?que se va?        ?ahaaaaaaa?
G|------------------------------------------------------
D|-3--3--3-----3--3---3-3----------4-7---4-4-4-4--------
A|---------------------------5---5---------------5-5-5-5
E|----------1-------------------------------------------

G|----------------------------------------------
D|-----------------5----------------------------
A|---------5-----5-----3--3--3--3--3--3---3---3-
E|-3------------------------------------3---3---


G|-------------------7--------------------------
D|-----------7-----7----------------------------
A|-5--5--5---5-----------3--3--3--3--3--3--3--3-
E|-3--3--3--------------------------------------

G|------------------------------------------------
D|-----------7---7-7-7--7-7-----5-----5-----------
A|-5-----5---5---5-5-5--5-5-3---3--3--3--3---3---3
E|-3-----3---------------------------------3---3--

G|----------------7---------------------------
D|-5-------4----7---7-------------------------
A|------------5--------3--3--3--3--3--3--3--3-
E|--------------------------------------------

G|--------------------------------------------
D|-5-------4---4--4-4--2----------------------
A|---------------------3--3--3--3--3--3--3--3-
E|--------------------------------------------

G|-----------------------------------------------------------------------------
D|-5-------4---4--4-4-4-4-2--2--2--2-------------------------------------------
A|---------5---5--5-5-5-5-3--3--3--3----3---3----------------------------------
E|------------------------------------3---3---3-3-3-3--------------------------


/: slide up (?arrastrar? hacia adelante)

Hola dulce viento-Mañana o pasado (David Lebon)

Hoy me vuelo de tantas caras
¿No ves algo en el puente que se va?
¡Hola dulce viento!
veo claramente en ti
Eres como mi amiga que se va

            
            
Suggest correction
Creating personal tab
Creating personal tab
You can edit any tab online and save it as your Personal.

You can edit, replace or remove any tab part or add personal notes – all changes will be seen only by you.

Personal tabs can be accessed anytime from any device, even offline.
Learn more »
Give kudos to tab author, rate the tab!
1 2 3 4 5
comments
print report bad tab
guest
Wanna post a correction for this tab? Suggest correction