Oops, an error
Loading. Please wait.

Superchería tab

290 views 1 this week
no commentswrite comment
1 2 3 4 5
3 more votes to show rating
add to favorites
×
Save as Personal and add changes to this tab that will be seen only by you. Learn more ›
×
You can save this tab as Personal to edit and correct it or add notes. All changes will be seen only by you. Learn more »
launch autoscroll
font size
0
reset
how to read this tab
guitar tuner
edit
Autoscroll
slow
fast
+/-
esc
set tempo
stop
El punteo de Supercheria del Album Artaud...
Esta es mi primera tablatura, asi que se la dedico
a todos los que nos rompemos la cabeza
para tocar estos temas... y especialmente para
la Rolo, que me introdujo en esta locura
que es Luis Alberto Spinetta...

Superchería
minuto 1:19

e|-----------------------------------------------------------|
b|-------8---------------------------------------------------|
g|7-7-7-----7----7h8p7-------7-------------------------------|
d|-----------------------9--------7--9--7--7-----7--9--7-----|
a|--------------------------------------------------------10-|
E|-----------------------------------------------------------|

e|------------------------------------|
b|------------------------------------|
g|------------------7-----------------|
d|----5/7--9----9-------9---7h9p7-----|
a|------------------------------------|
E|------------------------------------|

e|--------------------------------------|
b|-----------------------10--9--8-------|
g|---------9--8--7---7------------------|  x2
d|--------------------------------------|
a|---10---------------------------------|
E|--------------------------------------|

luego el puente es el siguiente:

e|-8----------------10------------|
b|----8---------------------------|
g|-------9---10/11----------------|
d|--------------------------------|
a|--------------------------------|
E|--------------------------------|

despues repite lo mismo, pero 4 trastes mas arriba,
empezando en el 11, segunda cuerda

en el punteo final juega con la escala:

e|-----------------5-8|
b|-------------6-8----|
g|---------5-7--------|
d|-----5-7------------|
a|-5-8----------------|
E|--------------------|

Pruébenlo que suena igual.

            
            
Suggest correction
Creating personal tab
Creating personal tab
You can edit any tab online and save it as your Personal.

You can edit, replace or remove any tab part or add personal notes – all changes will be seen only by you.

Personal tabs can be accessed anytime from any device, even offline.
Learn more »
Give kudos to tab author, rate the tab!
1 2 3 4 5
comments
print report bad tab
guest
Wanna post a correction for this tab? Suggest correction