Oops, an error
Loading. Please wait.

Superchería bass

173 views 1 this week
no commentswrite comment
1 2 3 4 5
3 more votes to show rating
add to favorites
×
Save as Personal and add changes to this tab that will be seen only by you. Learn more ›
×
You can save this tab as Personal to edit and correct it or add notes. All changes will be seen only by you. Learn more »
launch autoscroll
font size
0
reset
guitar tuner
edit
Autoscroll
slow
fast
+/-
esc
set tempo
stop
Los guiones los puse en el comienzo de cada compas para guiarse mejor.

   -          -          -                -          -          -
?Supersticion?
G|------------------------------------------------------------------------
D|-5--------0-4----------3--3--2------------------------------------------
A|----------------------------------------5--------0-5----------3--------0
E|------------------------------------------------------------------------

   -          -          -          -          -                -
              ?superstición?
G|------------------------------------------------------------------------
D|-----------------------5----------4----------3--3--2--------------------
A|-5----------3-----------------------------------------------0-5--------0
E|------------------------------------------------------------------------

   -          -          -          -          -          -
                                               ?superstición?
G|--------------------------------------------------------------3---
D|-----------------------------------------------------------3-----3
A|-5----------3--------0-5----------3----------5----------1---------
E|------------------------------------------------------------------

   -          -                -          -          -          -
G|-2----------------------------------------------------------------------
D|------------6--6--5----------3----------3---------------------3---------
A|---------------------------3----------3----3---5---6--------3-----------
E|------------------------------------------------------------------------

   -          -
G|----------------------
D|----------------------
A|-6----------3---------
E|----------------------

               (3 veces)
                        ?siempre soñar?              ?supersti-
G|--------------------------------------|----------------------
D|--------------------------------------|----------------------
A|-7-7-7|7|7|7|7|7|7-7-7-7-6-------3----|-5----------3---------
E|--------------------------------------|----------------------

   -         -           -                -          -          -
cion?
G|------------------------------------------------------------------------
D|-5-------0-4-----------3--3--2------------------------------------------
A|--------------------------------------0-5----------5----------3---------
E|------------------------------------------------------------------------

   -          -          -          -          -                -
              ?superstición?
G|------------------------------------------------------------------------
D|-----------------------5--------0-4----------3--3--2--------------------
A|-5----------3-------------------------------------------------5---------
E|------------------------------------------------------------------------

   -          -          -          -          -          -
                                               ?superstición?
G|--------------------------------------------------------------3---
D|-----------------------------------------------------------3-----3
A|-5----------3--------0-5--------0-3----------5----------1---------
E|------------------------------------------------------------------

   -          -                -          -          -          -
G|-2----------------------------------------------------------------------
D|------------6--6--5----------3----------3---------------------3---------
A|---------------------------3---------------3---5---6--------3-----------
E|------------------------------------------------------------------------

   -          -
G|----------------------
D|----------------------
A|-6----------3---------
E|----------------------

               (3 veces)
                        ?siempre templar?
G|--------------------------------------|----------------------
D|--------------------------------------|----------------------
A|-7-7-7|7|7|7|7|7|7-7-7-7-6-------3----|-5--------------------
E|--------------------------------------|----------------------

   -                 -                 -                 -
      ?y cuando te das cuenta que es tu amigo quien te da la mano?
G|-------------5-----------------5-----------------7-----------------7----
D|-----2---5-------5-----2---5-------------4---7-------7-----4---7--------
A|-3-----------------3-----------------5-----------------5----------------
E|------------------------------------------------------------------------

   -                 -                 -                 -
      ?entonces para vos ya no existe el miedo ni el dolor ni el frio?
G|-5---------------------5-------------------------7-----------------7---
D|-----5---2-5-2-----5-------5---3---------4---7-------------4---7-------
A|---------------3---------------------5-----------------5---------------
E|-----------------------------------------------------------------------

   -                 -                 -                 -
  ?estas comodo con el en tu casa y solo ves las estrellas de las espumas?
G|-------------5-----------------5-----------------7-----------------7----
D|-----2---5-------5-----2---5-------------4---7-------7-----4---7--------
A|-3-----------------3-----------------5-----------------5---------------5
E|------------------------------------------------------------------------

   -                 -                 -                 -
      ?y no haces mas nada porque crees que ahora ya no estas mas solo?
G|-------------5-----------------5---5-------------7-----------------7----
D|-----2---5-------5-----2---5-------------4---7-------7-----4---7-----7-7
A|-3-----------------3-----------------5-----------------5----------------
E|------------------------------------------------------------------------

   -                 -
     ?si me dieras al menos un porque?
G|-------------5-7----------------------------------------------------------
D|-----2---5-----------7----------------------------------------------------
A|-3-----------------5---------6p3-3-------------2-------------0------------
E|--------------------------------------------------------------------------

                    ?supersti-
G|----------------------------
D|----------------------------
A|-5-------------3------------
E|----------------------------

   -         -           -                -          -          -
cion?
G|------------------------------------------------------------------------
D|-5---------4-----------3--3--2------------------------------------------
A|--------------------------------------0-5--------0-5----------3--------0
E|------------------------------------------------------------3-----------

   -          -          -          -          -                -
              ?superstición?
G|------------------------------------------------------------------------
D|---------------------0-5--------0-4----------3--3--2--------------------
A|-5--------0-3-------------------------------------------------5--------0
E|------------------------------------------------------------------------

   -          -          -          -          -          -
                                               ?superstición?
G|--------------------------------------------------------------3---
D|-----------------------------------------------------------3-----3
A|-5--------0-3--------0-5--------0-3--------0-5----------1---------
E|------------------------------------------------------------------

   -          -                -          -          -          -
G|-2----------------------------------------------------------------------
D|------------6--6--5----------3----------3---------------------3---------
A|---------------------------3----------3----3---5---6--------3----------0
E|------------------------------------------------------------------------

   -          -          -          -
G|------------------3----2-----------------------------------
D|---------------3-----3------------6--6--5------------------
A|-6----------1----------------------------------------------
E|-----------------------------------------------------------

   p: pull off (ligado hacia atras)
x|x : tocar las dos notas consecutivamente rápido por Ej. 7|7

Supercheria (Spinetta)

Superstición
Superstición
Superstición

Siempre soñar
nunca creer
Eso es lo que mata tu amor
Siempre desear
nunca tener
Eso es lo que mata tu amor

Lo mismo da
morir y amar

Superstición
Superstición
Superstición

Siempre temblar
nunca crecer
Eso es lo que mata tu amor
Siempre llorar
nunca reir
Eso es lo que mata tu amor
Lo mismo da morir y amar

y cuando te das cuenta que es tu
amigo quien
te da la mano
Entonces para vos ya no existe el miedo, ni
el dolor ni el frío
Estás cómodo con él en tucasa y
sólo ves las
estrellas de espuma
y no hacés más nada porque creés
que ahora
ya no estás más solo
Si te dieras al menos un porqué

            
            
Suggest correction
Creating personal tab
Creating personal tab
You can edit any tab online and save it as your Personal.

You can edit, replace or remove any tab part or add personal notes – all changes will be seen only by you.

Personal tabs can be accessed anytime from any device, even offline.
Learn more »
Give kudos to tab author, rate the tab!
1 2 3 4 5
comments
print report bad tab
guest
Wanna post a correction for this tab? Suggest correction