Oops, an error
Loading. Please wait.

Abreme Tu Corazón tab

28 views 1 this week
no commentswrite comment
1 2 3 4 5
3 more votes to show rating
add to favorites
×
Save as Personal and add changes to this tab that will be seen only by you. Learn more ›
×
You can save this tab as Personal to edit and correct it or add notes. All changes will be seen only by you. Learn more »
launch autoscroll
font size
0
reset
how to read this tab
guitar tuner
edit
Autoscroll
slow
fast
+/-
esc
set tempo
stop
intro: b7m f#m x2

Riff (el riff entra con el intro)
e|----------------------------------------|
B|----------------------------------------|
G|----------------------------------------|
D|-----4-7----4-7----4-7--11--7-----------|
A|---5------4------5-------------9--------|
E|----------------------------------------|

Bm7                       F#m
QUIERO SER MIEL DE TUS BESOS?
Bm7                       F#m
SER LA FUERZA DE TUS HUESOS.
Bm7                       F#m
QUIERO SER EL SOL QUE TE ILUMINA?
Bm                       F#m
SER EL VIENTO QUE IMPULSA TU VUELO?

punte:
G                       F#
SER LA ESTRELLA QUE APARECE?
                        G
CUANDO EN TU VIDA ANOCHESE;
                       E
SER LA MUSIKA QUE BAILAS?

coro:
e|----14---|
 Bm7
//CUANTO AMOR? CUANTO AMOR?
G             F#
VOY A REGALARTE CUANDO TU ME QUIERAS.
e|----14---|
Bm7
CUANTO AMOR? CUANTO AMOR?
G             F#
QUE ES MÁS GRANDE QUE ESTA TIERRA.// x2

e|--------------------------------|
B|--------------------------------|
G|--------------------------------|
D|-----4-7----4-7-6---------------|
A|---5--------------7-------------|
E|--------------------7-----------|


Bm7                       F#m
QUIERO SER TUS SENTIMIENTO...
Bm7                       F#m
SER EL HEROE DE TUS CUENTOS;
Bm7                       F#m
QUIERO SER LA VOS QUE TE CONSUELA?
Bm                        F#m
SER EL GRAN AMOR QUE SIEMPRE SUEÑAS?

puente:
G                       F#
SER LA LUZ QUE SE APARECE
                        G
CUANDO EN TU VIDA OSCURESE?
                       E
SER LA MUSIKA QUE BAILAS?

coro x 2
Bm7
QUIERO ESTAR CONTIGO?
G        F#m
SOLO TU CONMIGO?
Bm7            G   F#m
ABREME TU CORAZON

Solo:

e|--------2---3p2----2---0-----|
B|---0x4---0------0----2---2---|
G|-----------------------------|
D|-----------------------------|
A|-----------------------------|
E|-----------------------------|

Lo sigues tocando hasta que entre al coro nuevamente
Final:

el final es muy sencillo solo es un arpegio delas mismas notas

  Bm7      G       F#
e|-2-|  e|-3-|  e|-2-|
B|-3-|  B|-3-|  B|-2-|
G|-2-|  G|-4-|  G|-3-|
D|-4-|  D|-5-|  D|-4-|
A|-2-|  A|-5-|  A|-4-|
E|-x-|  E|-3-|  E|-2-|

terminas en f#


SALUDOS A TODOS
TE AMO BB

            
            
Suggest correction
Creating personal tab
Creating personal tab
You can edit any tab online and save it as your Personal.

You can edit, replace or remove any tab part or add personal notes – all changes will be seen only by you.

Personal tabs can be accessed anytime from any device, even offline.
Learn more »
Give kudos to tab author, rate the tab!
1 2 3 4 5
comments
print report bad tab
guest
Wanna post a correction for this tab? Suggest correction