Oops, an error
Loading. Please wait.

Espíritu Inquieto tab

by Pez
47 views 1 this week
no commentswrite comment
1 2 3 4 5
3 more votes to show rating
add to favorites
×
Save as Personal and add changes to this tab that will be seen only by you. Learn more ›
×
You can save this tab as Personal to edit and correct it or add notes. All changes will be seen only by you. Learn more »
launch autoscroll
font size
0
reset
how to read this tab
guitar tuner
edit
Autoscroll
slow
fast
+/-
esc
set tempo
stop
intro

D        D#
------------------
------------------
-----7-------8----
---7---7---8---8--
-5-------6--------
------------------

riff principal
------------------------------------
------------------------------------
---------------------------7-------8
-9--9-9--9/11/7-5--5-5---7---7---8--
-7--7-7--7/9-/5-3--3-3-5-------6----
------------------------------------

(intro)
(riff principal x3)


E      C
Eolo me enseña
E       C
analogía para resistencia.
E                 C
Cuando el viento sopla fuerte para un lado
(fill)
yo inclino mi ser hacia el otro

D D# (arpeggiado)
Y es que no hay

(riff pirncipal)
y es que no hay paz en mí.
y es que no hay paz en mi
y es que no hay paz en mi

El tiempo me deja
diez mil preguntas, ninguna respuesta.
Siempre creo estar haciendo lo correcto
sólo por un segundo.
Siempre creo estar haciendo lo incorrecto
pero ahora no

y es que no hay paz en mí.


(puente x3 y despues puente b)
(solo sobre riff principal y coro)
(puente x3 y despues puente b)


fill
---------------
---------------
-------0-------
-2-0-2---2-0---
-------------3-
---------------


puente

---------------------------------
---------------------------------
--------------5--------5---------
---------5------7-5------7-5-----
---3-5-7---7--------7--------7-4-
-5-------------------------------

puente b

------------------------
------------------------
--------------4-5-7-8-9-
-------4-5-7------------
-4-5-7------------------
------------------------

Un abrazo y suerte para todos!
Zr. Zorrino
Suggest correction
Creating personal tab
Creating personal tab
You can edit any tab online and save it as your Personal.

You can edit, replace or remove any tab part or add personal notes – all changes will be seen only by you.

Personal tabs can be accessed anytime from any device, even offline.
Learn more »
Give kudos to tab author, rate the tab!
1 2 3 4 5
comments
print report bad tab
guest
Wanna post a correction for this tab? Suggest correction