Oops, an error
Loading. Please wait.

Estableciendo Comunicación tab

by Pez
32 views 1 this week
no commentswrite comment
1 2 3 4 5
3 more votes to show rating
add to favorites
×
Save as Personal and add changes to this tab that will be seen only by you. Learn more ›
×
You can save this tab as Personal to edit and correct it or add notes. All changes will be seen only by you. Learn more »
launch autoscroll
font size
0
reset
how to read this tab
guitar tuner
edit
Autoscroll
slow
fast
+/-
esc
set tempo
stop
Riff principal

|------------------------------------------|
|-----------------------------------10--10-|
|-------------9-11-9--11-9-----------9---9-|  x3
|-----7-9--11--------------11--------------|
|-7-9-------------------------12-10----9---|
|------------------------------------------|

o

|----------------------------5----5-|
|------------5-7-5-7-5-------5----5-|
|-----2-4-6------------6------------|
|-2-4--------------------7-5---4----|
|-----------------------------------|
|-----------------------------------|

elijan la que quede mas comoda para llegar mejor a esto

|-9---------8-----7-------------5-----------------|
|---10--------10--10-4-2-2------------------------|
|------9-10-------9--4-2-2--4-6---6-4-2-4-2-4-2---|
|--------------------4-2-2---------------------4-2|
|--------------------2-0-0------------------------|
|-------------------------------------------------|


 F@     G              A
Detrás del muro donde el frío nace
se esconde un sitio digno de contemplación
ahí no somos más que otros animales

Bm       D        A     E A E
en el jardín de nadie creceré mejor

|-------------------|
|-----7-----8-----9-|
|-------------------|
|-6-7---7-8---7-9---|
|-------------------|
|-------------------|

Bm       D        A     E A E
soy una flor salvaje y creceré mejor

(intro)

F#    G                   A
Y si pudiera hacerte sentir lo que
estoy sintiendo exactamente ahora yo
verías el miedo y verías las ganas
Bm  D      A     E A E
de establer comunicación
(fill)

Bm       D        A     E A E
Estableciendo comunicación

(organo en A)

Intermedio:

|-----------------------|
|---------8--7--5--5--5-|
|-6--6/7--6--6--6--7--6-|
|-7--7/7--7--7--7--7--7-| x2
|-7--7/7--0--0--0--0--0-|
|-5--5/5----------------|

Bm       D        A     E A E
Estableciendo comunicación

(intro)


Ojala les sisrva!
Un abrazo para todos/as
Zr. Zorrino

            
            
Suggest correction
Creating personal tab
Creating personal tab
You can edit any tab online and save it as your Personal.

You can edit, replace or remove any tab part or add personal notes – all changes will be seen only by you.

Personal tabs can be accessed anytime from any device, even offline.
Learn more »
Give kudos to tab author, rate the tab!
1 2 3 4 5
comments
print report bad tab
guest
Wanna post a correction for this tab? Suggest correction