Oops, an error
Loading. Please wait.

Faltan Miles De Años Más tab

by Pez
26 views 1 this week
no commentswrite comment
1 2 3 4 5
3 more votes to show rating
add to favorites
×
Save as Personal and add changes to this tab that will be seen only by you. Learn more ›
×
You can save this tab as Personal to edit and correct it or add notes. All changes will be seen only by you. Learn more »
launch autoscroll
font size
0
reset
how to read this tab
guitar tuner
edit
Autoscroll
slow
fast
+/-
esc
set tempo
stop
Riff principal

----------------------------|
----------------------------|
----------------------------|
-2-0-2-5-4------------------|
-----------5-3-2-0---0-2-0--|
-------------------3-------3|

------------------------|
------------------------|
------------------------|
-2-0-2-5-4--------------|
-----------5-3-2-0---0-2|
-------------------3----|

fill

|-----------------------------------|
|-----------------------8-7-8-7-5-4-|
|-------------7-5-4---4-------------|
|-7h5h7-5-4---------7---------------|
|-----------7-----------------------|
|-----------------------------------|

|-----------------------------------|
|-----------------------8-7-8-7-5-4-|
|-------------7-5-4---4-------------|
|-7h5h7-5-4---------7---------------|
|-----------7-----------------------|
|-----------------------------------|


 Em  E/F# G A C B7
Y te vas, lejos,
donde nadie pueda verte ya
Pescador sin dios que estás remando en aguas mansas
Despertás
      A             A-5
y cargás tu cruz y te ves llorar,

desnudo otra vez
Y así es. El ?no somos nada? es literal
Y es mejor saber que faltan miles de años más
Despertás

y entendés la fé y cristalizás
Y cargás tu cruz y te ves llorar,
Em
desnudo otra vez


(solo sobre E, G, F#, A
E,G.  C#-5)

(fill)
(riff principal)

A-5: 567xxx
C#-5: 345xxx

Un abrazo y suerte para tod@s!
Zr. Zorrino
Suggest correction
Creating personal tab
Creating personal tab
You can edit any tab online and save it as your Personal.

You can edit, replace or remove any tab part or add personal notes – all changes will be seen only by you.

Personal tabs can be accessed anytime from any device, even offline.
Learn more »
Give kudos to tab author, rate the tab!
1 2 3 4 5
comments
print report bad tab
guest
Wanna post a correction for this tab? Suggest correction