Oops, an error
Loading. Please wait.

Haciendo Real El Sueño Imposible tab

version 1
version 1

Whole song

by Pez
50 views 3 this week
no commentswrite comment
1 2 3 4 5
3 more votes to show rating
add to favorites
×
Save as Personal and add changes to this tab that will be seen only by you. Learn more ›
×
You can save this tab as Personal to edit and correct it or add notes. All changes will be seen only by you. Learn more »
launch autoscroll
font size
0
reset
how to read this tab
guitar tuner
edit
Autoscroll
slow
fast
+/-
esc
set tempo
stop
Intro

-------------------------------------
-------------------------------------
-------------------------------------
-------6---------6-------------------
-8-8-7---7-5-7-7---7-5-7-8-8---------
-6-6---------------------6-6---------


--------------------------------
---------------------------9---9
-------------------------7---7--
-------6---------6-7-8-9--------
-8-8-7---7-5-7-7----------------
-6-6----------------------------


Antes del verso

----------------------
----------------------
----------------------
-9-7-9-7--------------
-7-5-7-5-------5------
---------7-6-7---7----

----------------------------------------------
----------------------------------------------
----------------------------------------------
--------------------------------------------9-
-------5-6-7-9-10-9-7-10-9-7-6-7-9-7-10-9-7---
-5-6-7----------------------------------------

Em (3ra posicion) Em-5        Em(?)             E
Despierta ya hijo y ponte de pie, es hora de partir.
Se acercan ciudades, gigantes, sin tiempo,
se arrastran hasta aquí,
G#        A
  debemos irnos.

(intro)

En los días del hombre, enemigo del hombre,
dios de destrucción.
Buscando el refugio de las almas simples
lejos de su creación,
G#        A
sueño imposible

G# A
A# B

G# A A# B

(sobre acordes antes de verso)
Quiero creer que hay pueblos enteros viviendo
alejados de la idea del mundo del hombre
haciendo real el sueño imposible.
G#     A
Sueño imposible

E

G# A A# B

G# A
Frágil
A#    B
invencible.
G# A A# B

G# A
Frágil
A#    B
invencible.
G# A A# B


Em (3ra posicion): xx245x
E-5: xx235x
E(?): xx225x

Un abrazo y suerte para todos!
Zr. Zorrino.

            
            
Suggest correction
Creating personal tab
Creating personal tab
You can edit any tab online and save it as your Personal.

You can edit, replace or remove any tab part or add personal notes – all changes will be seen only by you.

Personal tabs can be accessed anytime from any device, even offline.
Learn more »
Give kudos to tab author, rate the tab!
1 2 3 4 5
comments
print report bad tab
guest
Wanna post a correction for this tab? Suggest correction