Oops, an error
Loading. Please wait.

Introducción, Declaración, Adivinanza tab

by Pez
65 views 1 this week
no commentswrite comment
1 2 3 4 5
3 more votes to show rating
add to favorites
×
Save as Personal and add changes to this tab that will be seen only by you. Learn more ›
×
You can save this tab as Personal to edit and correct it or add notes. All changes will be seen only by you. Learn more »
launch autoscroll
font size
0
reset
how to read this tab
guitar tuner
edit
Autoscroll
slow
fast
+/-
esc
set tempo
stop
Intro

e|-------------------------------|
B|-------------------------------|
G|---------------5---7-----------|
D|-7-5-7--2-5-7--5-5-7-7--2-5----|  x2
A|-7-5-7--2-5-7--3-5-5-7--2-5----|
E|-5-3-5--0-3-5----3---5--0-3----|

e|--------------------------------|
B|--------------------------------|
G|-------------5-/7--------7---8--|
D|-7-5-7---7-5-5-/7--5--5--7---8--|
A|-7-5-7---7-5-3-/5--5--5--5---6--|
E|-5-3-5---5-3-------3--3---------|

e|--------------------------------------------------------|
B|--------------------------------------------------------|
G|--------------------------------------------------------|
D|-------------------------------5------------------------|
A|--------5-7-8-7----------5-7-8---8-7-8-7-5-7-8-7---5h7--|
E|--5-7-8------------5-7-8------------------------------8-|

e|---------------------------------|
B|---------------------------------|
G|---------------------------------|
D|---------------------------------|
A|-------5-7-8-7---5h7p5/4h5-------|
E|-5-7-8---------------------5-7-3-|

e|-------------------------------------------|
B|-------------------------------------------|
G|-------------------------------------------|
D|-------------7-----------------------------|
A|-------5-7-8----7-8--5-7--3-5--2-3-2-------|
E|-5-7-8-------------------------------3-/5--|

e|----------------------------------------------------|
B|---------------------10---12---13-------------------|
G|---------------------12b--14b--15b------------------|
D|---4-7----------------------------------------------|
A|-5--------3-6---------------------------------------|
E|--------4-----5-7-8-----------------5-7-3---/3-2-0--|

e|------------------------------------------------------------|
B|----------------------------------------10---10-------------|
G|---------------------------7--6---6-7/9----9----------------|
D|------------4-5-7-5-4h5-/7--7---7-----------------4-7-------|
A|--------5-7--------------------------------------5------3-6-|
E|--5-7-8-----------------------------------------------4-----|


FA x6 - SOL x4    (Acordes de quinta)
FA x6


e|-----------------------|
B|-----------------------|
G|-----------------------|
D|-----------------------|  x4
A|-----/7--7-5-----------|
E|-0-0---------7--6-5-3--|

e|------------------------|
B|------------------14-12-|
G|---14b15b14p12----14-12-|
D|---------------14-------|
A|------------------------|
E|-0----------------------|


Parte cantada

Todo con Mim

... aquél que siempre soy

G|--------------------|
D|-2--5-4-2-2--7-8-9--|
A|-2--5-4-2-2--7-8-9--|
E|-0--3-2-0-0--5-6-7--|

... porque te vas a encontrar a un pendejo cabrón

G|--------------------|
D|-2--5-4-2-2--7-8-9--|
A|-2--5-4-2-2--7-8-9--| x2
E|-0--3-2-0-0--5-6-7--|

G|------------------------|
D|-10-9--8-7----10-9--8-7-|
A|-10-9--8-7----10-9--8-7-|
E|-8--7--6-5----8--7--6-5-|


El segundo verso es igual al anterior
Algunos cosas que se le pueden meter


no quiero seducirte

             e|--------------------|
             B|--------------------|
             G|--------------------|
             D|-2-0-------------2--| (deja sonar el mi hasta el
             A|-----2-1-0-------2--|  final de la otra frase)
             E|-----------3-2-0-0--|

Voy a morir de viejo
                    e|----------------|
                    B|----------------|
                    G|----------------|
                    D|------0------0--|
                    A|-0-h2---0-h2----|
                    E|----------------|

no voy a estar zarpado
e|------------------------|
B|------------------------|
G|-------------------2b-v-|
D|-2----------------------|
A|-2----------------------|
E|-0----------------------|

No tengo nada que ver con tu idea del rock

Solo en Mim

Cuando termina hace

       E---D#--E--D#-E--D#-E

(acordes de quintas en la quinta cuerda)
deja sonar el ultimo Mi
En la parte cantada hace estos acordes
y los repite hasta el final

   E   F#  G   A#
B|-0---2---3---3---|
G|-1---3---4---3---|
D|-2---4---5---3---|
A|-2---4---5---1---|
E|-0---2---3-------|

Termina en A#

            
            
Suggest correction
Creating personal tab
Creating personal tab
You can edit any tab online and save it as your Personal.

You can edit, replace or remove any tab part or add personal notes – all changes will be seen only by you.

Personal tabs can be accessed anytime from any device, even offline.
Learn more »
Give kudos to tab author, rate the tab!
1 2 3 4 5
comments
print report bad tab
guest
Wanna post a correction for this tab? Suggest correction